  0
SECTION
  2
HEADER
  9
$ACADVER
  1
AC1018
  9
$ACADMAINTVER
 70
     0
  9
$DWGCODEPAGE
  3
ANSI_1252
  9
$INSBASE
 10
0.0
 20
0.0
 30
0.0
  9
$EXTMIN
 10
-0.5
 20
-0.5
 30
-0.5
  9
$EXTMAX
 10
5.0
 20
5.0
 30
5.0
  9
$LIMMIN
 10
-0.5
 20
-0.5
  9
$LIMMAX
 10
5.0
 20
5.0
  9
$ORTHOMODE
 70
     0
  9
$REGENMODE
 70
     1
  9
$FILLMODE
 70
     1
  9
$QTEXTMODE
 70
     0
  9
$MIRRTEXT
 70
     1
  9
$LTSCALE
 40
1.0
  9
$ATTMODE
 70
     1
  9
$TEXTSIZE
 40
0.2
  9
$TRACEWID
 40
0.05
  9
$TEXTSTYLE
  7
Standard
  9
$CLAYER
  8
0
  9
$CELTYPE
  6
ByLayer
  9
$CECOLOR
 62
   256
  9
$CELTSCALE
 40
1.0
  9
$DISPSILH
 70
     0
  9
$DIMSCALE
 40
1.0
  9
$DIMASZ
 40
0.18
  9
$DIMEXO
 40
0.0625
  9
$DIMDLI
 40
0.38
  9
$DIMRND
 40
0.0
  9
$DIMDLE
 40
0.0
  9
$DIMEXE
 40
0.18
  9
$DIMTP
 40
0.0
  9
$DIMTM
 40
0.0
  9
$DIMTXT
 40
0.18
  9
$DIMCEN
 40
0.09
  9
$DIMTSZ
 40
0.0
  9
$DIMTOL
 70
     0
  9
$DIMLIM
 70
     0
  9
$DIMTIH
 70
     1
  9
$DIMTOH
 70
     1
  9
$DIMSE1
 70
     0
  9
$DIMSE2
 70
     0
  9
$DIMTAD
 70
     0
  9
$DIMZIN
 70
     0
  9
$DIMBLK
  1

  9
$DIMASO
 70
     1
  9
$DIMSHO
 70
     1
  9
$DIMPOST
  1

  9
$DIMAPOST
  1

  9
$DIMALT
 70
     0
  9
$DIMALTD
 70
     2
  9
$DIMALTF
 40
25.4
  9
$DIMLFAC
 40
1.0
  9
$DIMTOFL
 70
     0
  9
$DIMTVP
 40
0.0
  9
$DIMTIX
 70
     0
  9
$DIMSOXD
 70
     0
  9
$DIMSAH
 70
     0
  9
$DIMBLK1
  1

  9
$DIMBLK2
  1

  9
$DIMSTYLE
  2
Standard
  9
$DIMCLRD
 70
     0
  9
$DIMCLRE
 70
     0
  9
$DIMCLRT
 70
     0
  9
$DIMTFAC
 40
1.0
  9
$DIMGAP
 40
0.09
  9
$DIMJUST
 70
     0
  9
$DIMSD1
 70
     0
  9
$DIMSD2
 70
     0
  9
$DIMTOLJ
 70
     1
  9
$DIMTZIN
 70
     0
  9
$DIMALTZ
 70
     0
  9
$DIMALTTZ
 70
     0
  9
$DIMUPT
 70
     0
  9
$DIMDEC
 70
     4
  9
$DIMTDEC
 70
     4
  9
$DIMALTU
 70
     2
  9
$DIMALTTD
 70
     2
  9
$DIMTXSTY
  7
Standard
  9
$DIMAUNIT
 70
     0
  9
$DIMADEC
 70
     0
  9
$DIMALTRND
 40
0.0
  9
$DIMAZIN
 70
     0
  9
$DIMDSEP
 70
    46
  9
$DIMATFIT
 70
     3
  9
$DIMFRAC
 70
     0
  9
$DIMLDRBLK
  1

  9
$DIMLUNIT
 70
     2
  9
$DIMLWD
 70
    -2
  9
$DIMLWE
 70
    -2
  9
$DIMTMOVE
 70
     0
  9
$LUNITS
 70
     2
  9
$LUPREC
 70
     4
  9
$SKETCHINC
 40
0.1
  9
$FILLETRAD
 40
0.5
  9
$AUNITS
 70
     0
  9
$AUPREC
 70
     0
  9
$MENU
  1
.
  9
$ELEVATION
 40
0.0
  9
$PELEVATION
 40
0.0
  9
$THICKNESS
 40
0.0
  9
$LIMCHECK
 70
     0
  9
$CHAMFERA
 40
0.0
  9
$CHAMFERB
 40
0.0
  9
$CHAMFERC
 40
0.0
  9
$CHAMFERD
 40
0.0
  9
$SKPOLY
 70
     0
  9
$TDCREATE
 40
2460054.58808728
  9
$TDUCREATE
 40
2460054.504753947
  9
$TDUPDATE
 40
2460054.588087743
  9
$TDUUPDATE
 40
2460054.50475441
  9
$TDINDWG
 40
0.0000000116
  9
$TDUSRTIMER
 40
0.0000000116
  9
$USRTIMER
 70
     1
  9
$ANGBASE
 50
0.0
  9
$ANGDIR
 70
     0
  9
$PDMODE
 70
     0
  9
$PDSIZE
 40
0.0
  9
$PLINEWID
 40
0.0
  9
$SPLFRAME
 70
     0
  9
$SPLINETYPE
 70
     6
  9
$SPLINESEGS
 70
     8
  9
$HANDSEED
  5
1CC
  9
$SURFTAB1
 70
     6
  9
$SURFTAB2
 70
     6
  9
$SURFTYPE
 70
     6
  9
$SURFU
 70
     6
  9
$SURFV
 70
     6
  9
$UCSBASE
  2

  9
$UCSNAME
  2

  9
$UCSORG
 10
0.0
 20
0.0
 30
0.0
  9
$UCSXDIR
 10
1.0
 20
0.0
 30
0.0
  9
$UCSYDIR
 10
0.0
 20
1.0
 30
0.0
  9
$UCSORTHOREF
  2

  9
$UCSORTHOVIEW
 70
     0
  9
$UCSORGTOP
 10
0.0
 20
0.0
 30
0.0
  9
$UCSORGBOTTOM
 10
0.0
 20
0.0
 30
0.0
  9
$UCSORGLEFT
 10
0.0
 20
0.0
 30
0.0
  9
$UCSORGRIGHT
 10
0.0
 20
0.0
 30
0.0
  9
$UCSORGFRONT
 10
0.0
 20
0.0
 30
0.0
  9
$UCSORGBACK
 10
0.0
 20
0.0
 30
0.0
  9
$PUCSBASE
  2

  9
$PUCSNAME
  2

  9
$PUCSORG
 10
0.0
 20
0.0
 30
0.0
  9
$PUCSXDIR
 10
1.0
 20
0.0
 30
0.0
  9
$PUCSYDIR
 10
0.0
 20
1.0
 30
0.0
  9
$PUCSORTHOREF
  2

  9
$PUCSORTHOVIEW
 70
     0
  9
$PUCSORGTOP
 10
0.0
 20
0.0
 30
0.0
  9
$PUCSORGBOTTOM
 10
0.0
 20
0.0
 30
0.0
  9
$PUCSORGLEFT
 10
0.0
 20
0.0
 30
0.0
  9
$PUCSORGRIGHT
 10
0.0
 20
0.0
 30
0.0
  9
$PUCSORGFRONT
 10
0.0
 20
0.0
 30
0.0
  9
$PUCSORGBACK
 10
0.0
 20
0.0
 30
0.0
  9
$USERI1
 70
     0
  9
$USERI2
 70
     0
  9
$USERI3
 70
     0
  9
$USERI4
 70
     0
  9
$USERI5
 70
     0
  9
$USERR1
 40
0.0
  9
$USERR2
 40
0.0
  9
$USERR3
 40
0.0
  9
$USERR4
 40
0.0
  9
$USERR5
 40
0.0
  9
$WORLDVIEW
 70
     1
  9
$SHADEDGE
 70
     3
  9
$SHADEDIF
 70
    70
  9
$TILEMODE
 70
     1
  9
$MAXACTVP
 70
    64
  9
$PINSBASE
 10
0.0
 20
0.0
 30
0.0
  9
$PLIMCHECK
 70
     0
  9
$PEXTMIN
 10
-0.5
 20
-0.5
 30
-0.5
  9
$PEXTMAX
 10
5.0
 20
5.0
 30
5.0
  9
$PLIMMIN
 10
-0.5
 20
-0.5
  9
$PLIMMAX
 10
5.0
 20
5.0
  9
$UNITMODE
 70
     0
  9
$VISRETAIN
 70
     1
  9
$PLINEGEN
 70
     0
  9
$PSLTSCALE
 70
     1
  9
$TREEDEPTH
 70
  3020
  9
$CMLSTYLE
  2
Standard
  9
$CMLJUST
 70
     0
  9
$CMLSCALE
 40
1.0
  9
$PROXYGRAPHICS
 70
     1
  9
$MEASUREMENT
 70
     1
  9
$CELWEIGHT
370
    18
  9
$ENDCAPS
280
     0
  9
$JOINSTYLE
280
     0
  9
$LWDISPLAY
290
     1
  9
$INSUNITS
 70
     4
  9
$HYPERLINKBASE
  1

  9
$STYLESHEET
  1

  9
$XEDIT
290
     1
  9
$CEPSNTYPE
380
     0
  9
$PSTYLEMODE
290
     1
  9
$FINGERPRINTGUID
  2
{F068640C-5D9B-4729-A044-FFE021EEE449}
  9
$VERSIONGUID
  2
{FAEB1C32-E019-11D5-929B-00C0DF256EC4}
  9
$EXTNAMES
290
     1
  9
$PSVPSCALE
 40
0.0
  9
$OLESTARTUP
290
     0
  9
$SORTENTS
280
   127
  9
$INDEXCTL
280
     0
  9
$HIDETEXT
280
     1
  9
$XCLIPFRAME
290
     0
  9
$HALOGAP
280
     0
  9
$OBSCOLOR
 70
   257
  9
$OBSLTYPE
280
     0
  9
$INTERSECTIONDISPLAY
280
     0
  9
$INTERSECTIONCOLOR
 70
   257
  9
$DIMASSOC
280
     2
  9
$PROJECTNAME
  1

  0
ENDSEC
  0
SECTION
  2
CLASSES
  0
CLASS
  1
ACDBDICTIONARYWDFLT
  2
AcDbDictionaryWithDefault
  3
ObjectDBX Classes
 90
        0
 91
        3
280
     0
281
     0
  0
CLASS
  1
VISUALSTYLE
  2
AcDbVisualStyle
  3
ObjectDBX Classes
 90
     4095
 91
        3
280
     0
281
     0
  0
CLASS
  1
MATERIAL
  2
AcDbMaterial
  3
ObjectDBX Classes
 90
     1153
 91
        3
280
     0
281
     0
  0
CLASS
  1
SCALE
  2
AcDbScale
  3
ObjectDBX Classes
 90
     1153
 91
        3
280
     0
281
     0
  0
CLASS
  1
TABLESTYLE
  2
AcDbTableStyle
  3
ObjectDBX Classes
 90
     4095
 91
        3
280
     0
281
     0
  0
CLASS
  1
MLEADERSTYLE
  2
AcDbMLeaderStyle
  3
ACDB_MLEADERSTYLE_CLASS
 90
     4095
 91
        3
280
     0
281
     0
  0
CLASS
  1
SUN
  2
AcDbSun
  3
SCENEOE
 90
     1153
 91
        3
280
     0
281
     0
  0
CLASS
  1
DICTIONARYVAR
  2
AcDbDictionaryVar
  3
ObjectDBX Classes
 90
        0
 91
        3
280
     0
281
     0
  0
CLASS
  1
CELLSTYLEMAP
  2
AcDbCellStyleMap
  3
ObjectDBX Classes
 90
     1152
 91
        3
280
     0
281
     0
  0
ENDSEC
  0
SECTION
  2
TABLES
  0
TABLE
  2
VPORT
  5
8
102
{ACAD_XDICTIONARY
360
185
102
}
330
0
100
AcDbSymbolTable
 70
    16
  0
VPORT
  5
29
330
8
100
AcDbSymbolTableRecord
100
AcDbViewportTableRecord
  2
*Active
 70
     0
 10
0.0
 20
0.0
 11
1.0
 21
1.0
 12
590.105903
 22
387.628853
 13
0.0
 23
0.0
 14
0.5
 24
0.5
 15
0.5
 25
0.5
 16
0.0
 26
0.0
 36
1.0
 17
0.0
 27
0.0
 37
0.0
 40
254.0
 41
0.069908
 42
50.0
 43
1113.390775
 44
-1113.390775
 50
0.0
 51
0.0
 71
     0
 72
   100
 73
     1
 74
     3
 75
     0
 76
     0
 77
     0
 78
     0
281
     0
 65
     1
110
0.0
120
0.0
130
0.0
111
1.0
121
0.0
131
0.0
112
0.0
122
1.0
132
0.0
 79
     0
146
0.0
  0
VPORT
  5
176
330
8
100
AcDbSymbolTableRecord
100
AcDbViewportTableRecord
  2
L1
 70
     0
 10
0.0
 20
0.0
 11
1.0
 21
1.0
 12
590.105903
 22
387.628853
 13
0.0
 23
0.0
 14
0.5
 24
0.5
 15
0.5
 25
0.5
 16
0.0
 26
0.0
 36
1.0
 17
0.0
 27
0.0
 37
0.0
 40
254.0
 41
0.069908
 42
50.0
 43
1113.390775
 44
-1113.390775
 50
0.0
 51
0.0
 71
     0
 72
   100
 73
     1
 74
     3
 75
     0
 76
     0
 77
     0
 78
     0
281
     0
 65
     1
110
0.0
120
0.0
130
0.0
111
1.0
121
0.0
131
0.0
112
0.0
122
1.0
132
0.0
 79
     0
146
0.0
  0
VPORT
  5
177
330
8
100
AcDbSymbolTableRecord
100
AcDbViewportTableRecord
  2
L2
 70
     0
 10
0.0
 20
0.0
 11
0.5
 21
1.0
 12
0.0
 22
0.0
 13
0.0
 23
0.0
 14
0.5
 24
0.5
 15
0.5
 25
0.5
 16
0.0
 26
-1.0
 36
0.0
 17
0.0
 27
0.0
 37
0.0
 40
1554.140024
 41
0.011425
 42
50.0
 43
799.170128
 44
-799.170128
 50
0.0
 51
0.0
 71
     0
 72
   100
 73
     1
 74
     3
 75
     0
 76
     0
 77
     0
 78
     0
281
     0
 65
     1
110
0.0
120
0.0
130
0.0
111
1.0
121
0.0
131
0.0
112
0.0
122
1.0
132
0.0
 79
     0
146
0.0
  0
VPORT
  5
178
330
8
100
AcDbSymbolTableRecord
100
AcDbViewportTableRecord
  2
L2
 70
     0
 10
0.5
 20
0.0
 11
1.0
 21
1.0
 12
0.0
 22
0.0
 13
0.0
 23
0.0
 14
0.5
 24
0.5
 15
0.5
 25
0.5
 16
1.0
 26
0.0
 36
0.0
 17
0.0
 27
0.0
 37
0.0
 40
1554.140024
 41
0.011425
 42
50.0
 43
787.379708
 44
-787.379708
 50
0.0
 51
0.0
 71
     0
 72
   100
 73
     1
 74
     3
 75
     0
 76
     0
 77
     0
 78
     0
281
     0
 65
     1
110
0.0
120
0.0
130
0.0
111
1.0
121
0.0
131
0.0
112
0.0
122
1.0
132
0.0
 79
     0
146
0.0
  0
VPORT
  5
179
330
8
100
AcDbSymbolTableRecord
100
AcDbViewportTableRecord
  2
L3
 70
     0
 10
0.0
 20
0.5
 11
1.0
 21
1.0
 12
590.105903
 22
387.628853
 13
0.0
 23
0.0
 14
0.5
 24
0.5
 15
0.5
 25
0.5
 16
0.0
 26
0.0
 36
1.0
 17
0.0
 27
0.0
 37
0.0
 40
254.0
 41
0.069908
 42
50.0
 43
1113.390775
 44
-1113.390775
 50
0.0
 51
0.0
 71
     0
 72
   100
 73
     1
 74
     3
 75
     0
 76
     0
 77
     0
 78
     0
281
     0
 65
     1
110
0.0
120
0.0
130
0.0
111
1.0
121
0.0
131
0.0
112
0.0
122
1.0
132
0.0
 79
     0
146
0.0
  0
VPORT
  5
17A
330
8
100
AcDbSymbolTableRecord
100
AcDbViewportTableRecord
  2
L3
 70
     0
 10
0.0
 20
0.0
 11
1.0
 21
0.5
 12
0.0
 22
0.0
 13
0.0
 23
0.0
 14
0.5
 24
0.5
 15
0.5
 25
0.5
 16
0.0
 26
-1.0
 36
0.0
 17
0.0
 27
0.0
 37
0.0
 40
1554.140024
 41
0.011425
 42
50.0
 43
799.170128
 44
-799.170128
 50
0.0
 51
0.0
 71
     0
 72
   100
 73
     1
 74
     3
 75
     0
 76
     0
 77
     0
 78
     0
281
     0
 65
     1
110
0.0
120
0.0
130
0.0
111
1.0
121
0.0
131
0.0
112
0.0
122
1.0
132
0.0
 79
     0
146
0.0
  0
VPORT
  5
17B
330
8
100
AcDbSymbolTableRecord
100
AcDbViewportTableRecord
  2
L4
 70
     0
 10
0.0
 20
0.5
 11
0.5
 21
1.0
 12
590.105903
 22
387.628853
 13
0.0
 23
0.0
 14
0.5
 24
0.5
 15
0.5
 25
0.5
 16
0.0
 26
0.0
 36
1.0
 17
0.0
 27
0.0
 37
0.0
 40
254.0
 41
0.069908
 42
50.0
 43
1113.390775
 44
-1113.390775
 50
0.0
 51
0.0
 71
     0
 72
   100
 73
     1
 74
     3
 75
     0
 76
     0
 77
     0
 78
     0
281
     0
 65
     1
110
0.0
120
0.0
130
0.0
111
1.0
121
0.0
131
0.0
112
0.0
122
1.0
132
0.0
 79
     0
146
0.0
  0
VPORT
  5
17C
330
8
100
AcDbSymbolTableRecord
100
AcDbViewportTableRecord
  2
L4
 70
     0
 10
0.0
 20
0.0
 11
0.5
 21
0.5
 12
0.0
 22
0.0
 13
0.0
 23
0.0
 14
0.5
 24
0.5
 15
0.5
 25
0.5
 16
0.0
 26
-1.0
 36
0.0
 17
0.0
 27
0.0
 37
0.0
 40
1554.140024
 41
0.011425
 42
50.0
 43
799.170128
 44
-799.170128
 50
0.0
 51
0.0
 71
     0
 72
   100
 73
     1
 74
     3
 75
     0
 76
     0
 77
     0
 78
     0
281
     0
 65
     1
110
0.0
120
0.0
130
0.0
111
1.0
121
0.0
131
0.0
112
0.0
122
1.0
132
0.0
 79
     0
146
0.0
  0
VPORT
  5
17D
330
8
100
AcDbSymbolTableRecord
100
AcDbViewportTableRecord
  2
L4
 70
     0
 10
0.5
 20
0.0
 11
1.0
 21
0.5
 12
0.0
 22
0.0
 13
0.0
 23
0.0
 14
0.5
 24
0.5
 15
0.5
 25
0.5
 16
1.0
 26
0.0
 36
0.0
 17
0.0
 27
0.0
 37
0.0
 40
1554.140024
 41
0.011425
 42
50.0
 43
787.379708
 44
-787.379708
 50
0.0
 51
0.0
 71
     0
 72
   100
 73
     1
 74
     3
 75
     0
 76
     0
 77
     0
 78
     0
281
     0
 65
     1
110
0.0
120
0.0
130
0.0
111
1.0
121
0.0
131
0.0
112
0.0
122
1.0
132
0.0
 79
     0
146
0.0
  0
VPORT
  5
17E
330
8
100
AcDbSymbolTableRecord
100
AcDbViewportTableRecord
  2
L4
 70
     0
 10
0.5
 20
0.5
 11
1.0
 21
1.0
 12
0.0
 22
0.0
 13
0.0
 23
0.0
 14
0.5
 24
0.5
 15
0.5
 25
0.5
 16
0.5773502691896258
 26
-0.5773502691896258
 36
0.5773502691896258
 17
0.0
 27
0.0
 37
0.0
 40
1525.037316
 41
0.011643
 42
50.0
 43
794.116007
 44
-794.116007
 50
0.0
 51
0.0
 71
     0
 72
   100
 73
     1
 74
     3
 75
     0
 76
     0
 77
     0
 78
     0
281
     0
 65
     1
110
0.0
120
0.0
130
0.0
111
1.0
121
0.0
131
0.0
112
0.0
122
1.0
132
0.0
 79
     0
146
0.0
  0
VPORT
  5
17F
330
8
100
AcDbSymbolTableRecord
100
AcDbViewportTableRecord
  2
L6
 70
     0
 10
0.0
 20
0.5
 11
0.333333
 21
1.0
 12
0.0
 22
0.0
 13
0.0
 23
0.0
 14
0.5
 24
0.5
 15
0.5
 25
0.5
 16
0.7188730927569433
 26
-0.5850486126764433
 36
0.3754192287502549
 17
0.0
 27
0.0
 37
0.0
 40
1609.344902
 41
0.011034
 42
50.0
 43
833.240238
 44
-833.240238
 50
0.0
 51
0.0
 71
     0
 72
   100
 73
     1
 74
     3
 75
     0
 76
     0
 77
     0
 78
     0
281
     0
 65
     1
110
0.0
120
0.0
130
0.0
111
1.0
121
0.0
131
0.0
112
0.0
122
1.0
132
0.0
 79
     0
146
0.0
  0
VPORT
  5
180
330
8
100
AcDbSymbolTableRecord
100
AcDbViewportTableRecord
  2
L6
 70
     0
 10
0.0
 20
0.0
 11
0.333333
 21
0.5
 12
0.0
 22
0.0
 13
0.0
 23
0.0
 14
0.5
 24
0.5
 15
0.5
 25
0.5
 16
-1.0
 26
0.0
 36
0.0
 17
0.0
 27
0.0
 37
0.0
 40
1554.140024
 41
0.011425
 42
50.0
 43
787.379708
 44
-787.379708
 50
0.0
 51
0.0
 71
     0
 72
   100
 73
     1
 74
     3
 75
     0
 76
     0
 77
     0
 78
     0
281
     0
 65
     1
110
0.0
120
0.0
130
0.0
111
1.0
121
0.0
131
0.0
112
0.0
122
1.0
132
0.0
 79
     0
146
0.0
  0
VPORT
  5
181
330
8
100
AcDbSymbolTableRecord
100
AcDbViewportTableRecord
  2
L6
 70
     0
 10
0.333333
 20
0.5
 11
0.666667
 21
1.0
 12
590.105903
 22
387.628853
 13
0.0
 23
0.0
 14
0.5
 24
0.5
 15
0.5
 25
0.5
 16
0.0
 26
0.0
 36
1.0
 17
0.0
 27
0.0
 37
0.0
 40
254.0
 41
0.069908
 42
50.0
 43
1113.390775
 44
-1113.390775
 50
0.0
 51
0.0
 71
     0
 72
   100
 73
     1
 74
     3
 75
     0
 76
     0
 77
     0
 78
     0
281
     0
 65
     1
110
0.0
120
0.0
130
0.0
111
1.0
121
0.0
131
0.0
112
0.0
122
1.0
132
0.0
 79
     0
146
0.0
  0
VPORT
  5
182
330
8
100
AcDbSymbolTableRecord
100
AcDbViewportTableRecord
  2
L6
 70
     0
 10
0.333333
 20
0.0
 11
0.666667
 21
0.5
 12
0.0
 22
0.0
 13
0.0
 23
0.0
 14
0.5
 24
0.5
 15
0.5
 25
0.5
 16
0.0
 26
-1.0
 36
0.0
 17
0.0
 27
0.0
 37
0.0
 40
1554.140024
 41
0.011425
 42
50.0
 43
799.170128
 44
-799.170128
 50
0.0
 51
0.0
 71
     0
 72
   100
 73
     1
 74
     3
 75
     0
 76
     0
 77
     0
 78
     0
281
     0
 65
     1
110
0.0
120
0.0
130
0.0
111
1.0
121
0.0
131
0.0
112
0.0
122
1.0
132
0.0
 79
     0
146
0.0
  0
VPORT
  5
183
330
8
100
AcDbSymbolTableRecord
100
AcDbViewportTableRecord
  2
L6
 70
     0
 10
0.666667
 20
0.5
 11
1.0
 21
1.0
 12
0.0
 22
0.0
 13
0.0
 23
0.0
 14
0.5
 24
0.5
 15
0.5
 25
0.5
 16
0.5773502691896258
 26
-0.5773502691896258
 36
0.5773502691896258
 17
0.0
 27
0.0
 37
0.0
 40
1525.037316
 41
0.011643
 42
50.0
 43
794.116007
 44
-794.116007
 50
0.0
 51
0.0
 71
     0
 72
   100
 73
     1
 74
     3
 75
     0
 76
     0
 77
     0
 78
     0
281
     0
 65
     1
110
0.0
120
0.0
130
0.0
111
1.0
121
0.0
131
0.0
112
0.0
122
1.0
132
0.0
 79
     0
146
0.0
  0
VPORT
  5
184
330
8
100
AcDbSymbolTableRecord
100
AcDbViewportTableRecord
  2
L6
 70
     0
 10
0.666667
 20
0.0
 11
1.0
 21
0.5
 12
0.0
 22
0.0
 13
0.0
 23
0.0
 14
0.5
 24
0.5
 15
0.5
 25
0.5
 16
1.0
 26
0.0
 36
0.0
 17
0.0
 27
0.0
 37
0.0
 40
1554.140024
 41
0.011425
 42
50.0
 43
787.379708
 44
-787.379708
 50
0.0
 51
0.0
 71
     0
 72
   100
 73
     1
 74
     3
 75
     0
 76
     0
 77
     0
 78
     0
281
     0
 65
     1
110
0.0
120
0.0
130
0.0
111
1.0
121
0.0
131
0.0
112
0.0
122
1.0
132
0.0
 79
     0
146
0.0
  0
ENDTAB
  0
TABLE
  2
LTYPE
  5
5
330
0
100
AcDbSymbolTable
 70
     6
  0
LTYPE
  5
14
330
5
100
AcDbSymbolTableRecord
100
AcDbLinetypeTableRecord
  2
ByBlock
 70
     0
  3

 72
    65
 73
     0
 40
0.0
  0
LTYPE
  5
15
330
5
100
AcDbSymbolTableRecord
100
AcDbLinetypeTableRecord
  2
ByLayer
 70
     0
  3

 72
    65
 73
     0
 40
0.0
  0
LTYPE
  5
16
330
5
100
AcDbSymbolTableRecord
100
AcDbLinetypeTableRecord
  2
Continuous
 70
     0
  3
Solid line
 72
    65
 73
     0
 40
0.0
  0
LTYPE
  5
6E
330
5
100
AcDbSymbolTableRecord
100
AcDbLinetypeTableRecord
  2
CENTER
 70
     0
  3
____ _ ____ _ ____ _ ____
 72
    65
 73
     4
 40
47.4
 49
22.0
 74
     4
 75
     0
340
0
 46
0.0
 50
0.0
 44
0.0
 45
0.0
 49
-8.5
 74
     4
 75
     0
340
0
 46
0.0
 50
0.0
 44
0.0
 45
0.0
 49
8.5
 74
     4
 75
     0
340
0
 46
0.0
 50
0.0
 44
0.0
 45
0.0
 49
-8.5
 74
     4
 75
     0
340
0
 46
0.0
 50
0.0
 44
0.0
 45
0.0
  0
LTYPE
  5
6F
330
5
100
AcDbSymbolTableRecord
100
AcDbLinetypeTableRecord
  2
DASHDOT
 70
     0
  3
_._._._._._._._._._._._._._._._.
 72
    65
 73
     4
 40
70.0
 49
31.0
 74
     4
 75
     0
340
0
 46
0.0
 50
0.0
 44
0.0
 45
0.0
 49
-13.0
 74
     4
 75
     0
340
0
 46
0.0
 50
0.0
 44
0.0
 45
0.0
 49
13.0
 74
     4
 75
     0
340
0
 46
0.0
 50
0.0
 44
0.0
 45
0.0
 49
-13.0
 74
     4
 75
     0
340
0
 46
0.0
 50
0.0
 44
0.0
 45
0.0
  0
LTYPE
  5
70
330
5
100
AcDbSymbolTableRecord
100
AcDbLinetypeTableRecord
  2
DASHED
 70
     0
  3
__ __ __ __ __ __ __ __ __
 72
    65
 73
     2
 40
25.72
 49
12.86
 74
     4
 75
     0
340
0
 46
0.0
 50
0.0
 44
0.0
 45
0.0
 49
-12.86
 74
     4
 75
     0
340
0
 46
0.0
 50
0.0
 44
0.0
 45
0.0
  0
LTYPE
  5
71
330
5
100
AcDbSymbolTableRecord
100
AcDbLinetypeTableRecord
  2
DOT
 70
     0
  3
.........................
 72
    65
 73
     2
 40
10.0
 49
0.0
 74
     4
 75
     0
340
0
 46
0.0
 50
0.0
 44
0.0
 45
0.0
 49
-10.0
 74
     4
 75
     0
340
0
 46
0.0
 50
0.0
 44
0.0
 45
0.0
  0
LTYPE
  5
72
330
5
100
AcDbSymbolTableRecord
100
AcDbLinetypeTableRecord
  2
PHANTOM
 70
     0
  3
____ _ _ ____ _ _ _____ _ _ ____
 72
    65
 73
     6
 40
50.5
 49
18.0
 74
     4
 75
     0
340
0
 46
0.0
 50
0.0
 44
0.0
 45
0.0
 49
-6.5
 74
     4
 75
     0
340
0
 46
0.0
 50
0.0
 44
0.0
 45
0.0
 49
6.5
 74
     4
 75
     0
340
0
 46
0.0
 50
0.0
 44
0.0
 45
0.0
 49
-6.5
 74
     4
 75
     0
340
0
 46
0.0
 50
0.0
 44
0.0
 45
0.0
 49
6.5
 74
     4
 75
     0
340
0
 46
0.0
 50
0.0
 44
0.0
 45
0.0
 49
-6.5
 74
     4
 75
     0
340
0
 46
0.0
 50
0.0
 44
0.0
 45
0.0
  0
ENDTAB
  0
TABLE
  2
LAYER
  5
2
330
0
100
AcDbSymbolTable
 70
     3
  0
LAYER
  5
10
330
2
100
AcDbSymbolTableRecord
100
AcDbLayerTableRecord
  2
0
 70
     0
 62
     7
  6
Continuous
370
    -3
390
F
  0
LAYER
  5
74
330
2
100
AcDbSymbolTableRecord
100
AcDbLayerTableRecord
  2
2
 70
     0
 62
     7
420
 16777215
  6
Continuous
370
    -3
390
F
  0
LAYER
  5
79
330
2
100
AcDbSymbolTableRecord
100
AcDbLayerTableRecord
  2
1
 70
     0
 62
     7
420
 16777215
  6
Continuous
370
    -3
390
F
  0
ENDTAB
  0
TABLE
  2
STYLE
  5
3
330
0
100
AcDbSymbolTable
 70
     1
  0
STYLE
  5
11
330
3
100
AcDbSymbolTableRecord
100
AcDbTextStyleTableRecord
  2
Standard
 70
     0
 40
0.0
 41
1.0
 50
0.0
 71
     0
 42
0.2
  3
txt
  4

  0
ENDTAB
  0
TABLE
  2
VIEW
  5
6
330
0
100
AcDbSymbolTable
 70
     0
  0
ENDTAB
  0
TABLE
  2
UCS
  5
7
330
0
100
AcDbSymbolTable
 70
     0
  0
ENDTAB
  0
TABLE
  2
APPID
  5
9
330
0
100
AcDbSymbolTable
 70
     2
  0
APPID
  5
12
330
9
100
AcDbSymbolTableRecord
100
AcDbRegAppTableRecord
  2
ACAD
 70
     0
  0
APPID
  5
1C4
330
9
100
AcDbSymbolTableRecord
100
AcDbRegAppTableRecord
  2
ACAD_MLEADERVER
 70
     0
  0
ENDTAB
  0
TABLE
  2
DIMSTYLE
  5
A
330
0
100
AcDbSymbolTable
 70
     1
100
AcDbDimStyleTable
  0
DIMSTYLE
105
27
330
A
100
AcDbSymbolTableRecord
100
AcDbDimStyleTableRecord
  2
Standard
 70
     0
178
     0
340
11
  0
ENDTAB
  0
TABLE
  2
BLOCK_RECORD
  5
1
330
0
100
AcDbSymbolTable
 70
     1
  0
BLOCK_RECORD
  5
1F
330
1
100
AcDbSymbolTableRecord
100
AcDbBlockTableRecord
  2
*Model_Space
340
22
  0
BLOCK_RECORD
  5
1B
330
1
100
AcDbSymbolTableRecord
100
AcDbBlockTableRecord
  2
*Paper_Space
340
1E
  0
BLOCK_RECORD
  5
23
330
1
100
AcDbSymbolTableRecord
100
AcDbBlockTableRecord
  2
*Paper_Space0
340
26
  0
ENDTAB
  0
ENDSEC
  0
SECTION
  2
BLOCKS
  0
BLOCK
  5
20
330
1F
100
AcDbEntity
  8
0
100
AcDbBlockBegin
  2
*Model_Space
 70
     0
 10
0.0
 20
0.0
 30
0.0
  3
*Model_Space
  1

  0
ENDBLK
  5
21
330
1F
100
AcDbEntity
  8
0
100
AcDbBlockEnd
  0
BLOCK
  5
1C
330
1B
100
AcDbEntity
 67
     1
  8
0
100
AcDbBlockBegin
  2
*Paper_Space
 70
     0
 10
0.0
 20
0.0
 30
0.0
  3
*Paper_Space
  1

  0
ENDBLK
  5
1D
330
1B
100
AcDbEntity
 67
     1
  8
0
100
AcDbBlockEnd
  0
BLOCK
  5
24
330
23
100
AcDbEntity
  8
0
100
AcDbBlockBegin
  2
*Paper_Space0
 70
     0
 10
0.0
 20
0.0
 30
0.0
  3
*Paper_Space0
  1

  0
ENDBLK
  5
25
330
23
100
AcDbEntity
  8
0
100
AcDbBlockEnd
  0
ENDSEC
  0
SECTION
  2
ENTITIES
  0
LINE
  5
73
330
1F
100
AcDbEntity
  8
2
  6
Continuous
 62
    30
370
    18
100
AcDbLine
 10
362.663895
 20
590.916741
 30
0.0
 11
362.663895
 21
615.916741
 31
0.0
  0
LINE
  5
75
330
1F
100
AcDbEntity
  8
2
  6
Continuous
 62
    30
370
    18
100
AcDbLine
 10
349.663895
 20
615.916741
 30
0.0
 11
349.663895
 21
590.916741
 31
0.0
  0
LINE
  5
76
330
1F
100
AcDbEntity
  8
2
  6
Continuous
 62
    30
370
    18
100
AcDbLine
 10
410.663895
 20
590.916741
 30
0.0
 11
410.663895
 21
615.916741
 31
0.0
  0
LINE
  5
77
330
1F
100
AcDbEntity
  8
2
  6
Continuous
 62
    30
370
    18
100
AcDbLine
 10
397.663895
 20
615.916741
 30
0.0
 11
397.663895
 21
590.916741
 31
0.0
  0
LINE
  5
78
330
1F
100
AcDbEntity
  8
1
  6
Continuous
 62
    30
370
    18
100
AcDbLine
 10
387.163895
 20
580.498229
 30
0.0
 11
386.663895
 21
580.498229
 31
0.0
  0
LINE
  5
7A
330
1F
100
AcDbEntity
  8
1
  6
Continuous
 62
    30
370
    18
100
AcDbLine
 10
386.663895
 20
579.598229
 30
0.0
 11
387.163895
 21
579.598229
 31
0.0
  0
LINE
  5
7B
330
1F
100
AcDbEntity
  8
1
  6
Continuous
 62
    30
370
    18
100
AcDbLine
 10
387.163895
 20
579.362422
 30
0.0
 11
386.663895
 21
579.362422
 31
0.0
  0
LINE
  5
7C
330
1F
100
AcDbEntity
  8
1
  6
Continuous
 62
    30
370
    18
100
AcDbLine
 10
373.163895
 20
575.654961
 30
0.0
 11
373.663895
 21
575.654961
 31
0.0
  0
LINE
  5
7D
330
1F
100
AcDbEntity
  8
1
  6
Continuous
 62
    30
370
    18
100
AcDbLine
 10
373.663895
 20
580.498229
 30
0.0
 11
373.163895
 21
580.498229
 31
0.0
  0
LINE
  5
7E
330
1F
100
AcDbEntity
  8
1
  6
Continuous
 62
    30
370
    18
100
AcDbLine
 10
387.163895
 20
578.701028
 30
0.0
 11
386.663895
 21
578.701028
 31
0.0
  0
LINE
  5
7F
330
1F
100
AcDbEntity
  8
1
  6
Continuous
 62
    30
370
    18
100
AcDbLine
 10
373.663895
 20
578.707343
 30
0.0
 11
373.163895
 21
578.707343
 31
0.0
  0
LINE
  5
80
330
1F
100
AcDbEntity
  8
1
  6
Continuous
 62
    30
370
    18
100
AcDbLine
 10
373.663895
 20
580.098158
 30
0.0
 11
373.163895
 21
580.098158
 31
0.0
  0
LINE
  5
81
330
1F
100
AcDbEntity
  8
1
  6
Continuous
 62
    30
370
    18
100
AcDbLine
 10
373.163895
 20
578.718319
 30
0.0
 11
373.663895
 21
578.718319
 31
0.0
  0
LINE
  5
82
330
1F
100
AcDbEntity
  8
1
  6
Continuous
 62
    30
370
    18
100
AcDbLine
 10
373.663895
 20
579.618319
 30
0.0
 11
373.163895
 21
579.618319
 31
0.0
  0
LINE
  5
83
330
1F
100
AcDbEntity
  8
1
  6
Continuous
 62
    30
370
    18
100
AcDbLine
 10
398.812309
 20
552.416741
 30
0.0
 11
398.835906
 21
553.340096
 31
0.0
  0
LINE
  5
84
330
1F
100
AcDbEntity
  8
1
  6
Continuous
 62
    30
370
    18
100
AcDbLine
 10
361.491883
 20
553.340096
 30
0.0
 11
361.515481
 21
552.416741
 31
0.0
  0
LINE
  5
85
330
1F
100
AcDbEntity
  8
1
  6
Continuous
 62
   252
370
    18
100
AcDbLine
 10
398.812309
 20
538.416741
 30
0.0
 11
398.812309
 21
552.416741
 31
0.0
  0
LINE
  5
86
330
1F
100
AcDbEntity
  8
1
  6
Continuous
 62
   252
370
    18
100
AcDbLine
 10
361.515481
 20
552.416741
 30
0.0
 11
361.515481
 21
538.416741
 31
0.0
  0
LINE
  5
87
330
1F
100
AcDbEntity
  8
1
  6
Continuous
 62
   252
370
    18
100
AcDbLine
 10
387.163895
 20
510.416741
 30
0.0
 11
387.163895
 21
530.416741
 31
0.0
  0
LINE
  5
88
330
1F
100
AcDbEntity
  8
1
  6
Continuous
 62
   252
370
    18
100
AcDbLine
 10
373.163895
 20
530.416741
 30
0.0
 11
373.163895
 21
510.416741
 31
0.0
  0
LINE
  5
89
330
1F
100
AcDbEntity
  8
1
  6
Continuous
 62
   252
370
    18
100
AcDbLine
 10
386.163895
 20
509.416741
 30
0.0
 11
387.163895
 21
510.416741
 31
0.0
  0
LINE
  5
8A
330
1F
100
AcDbEntity
  8
1
  6
Continuous
 62
   252
370
    18
100
AcDbLine
 10
373.163895
 20
510.416741
 30
0.0
 11
374.163895
 21
509.416741
 31
0.0
  0
LINE
  5
8B
330
1F
100
AcDbEntity
  8
1
  6
Continuous
 62
   252
370
    18
100
AcDbLine
 10
361.163895
 20
538.416741
 30
0.0
 11
361.163895
 21
532.416741
 31
0.0
  0
LINE
  5
8C
330
1F
100
AcDbEntity
  8
1
  6
Continuous
 62
   252
370
    18
100
AcDbLine
 10
399.163895
 20
532.416741
 30
0.0
 11
399.163895
 21
538.416741
 31
0.0
  0
LINE
  5
8D
330
1F
100
AcDbEntity
  8
2
  6
Continuous
 62
    30
370
    13
100
AcDbLine
 10
410.663895
 20
590.916741
 30
0.0
 11
397.663895
 21
590.916741
 31
0.0
  0
LINE
  5
8E
330
1F
100
AcDbEntity
  8
2
  6
Continuous
 62
    30
370
    13
100
AcDbLine
 10
349.663895
 20
590.916741
 30
0.0
 11
362.663895
 21
590.916741
 31
0.0
  0
LINE
  5
8F
330
1F
100
AcDbEntity
  8
2
  6
Continuous
 62
    30
370
    13
100
AcDbLine
 10
410.663895
 20
615.916741
 30
0.0
 11
397.663895
 21
615.916741
 31
0.0
  0
LINE
  5
90
330
1F
100
AcDbEntity
  8
2
  6
Continuous
 62
    30
370
    13
100
AcDbLine
 10
349.663895
 20
615.916741
 30
0.0
 11
362.663895
 21
615.916741
 31
0.0
  0
LINE
  5
91
330
1F
100
AcDbEntity
  8
1
  6
Continuous
 62
    30
370
    18
100
AcDbLine
 10
373.163895
 20
575.427189
 30
0.0
 11
373.663895
 21
575.427189
 31
0.0
  0
LINE
  5
92
330
1F
100
AcDbEntity
  8
1
  6
Continuous
 62
    30
370
    18
100
AcDbLine
 10
373.163895
 20
575.565549
 30
0.0
 11
373.663895
 21
575.565549
 31
0.0
  0
LINE
  5
93
330
1F
100
AcDbEntity
  8
1
  6
Continuous
 62
    30
370
    18
100
AcDbLine
 10
387.163895
 20
580.498229
 30
0.0
 11
387.163895
 21
579.598229
 31
0.0
  0
LINE
  5
94
330
1F
100
AcDbEntity
  8
1
  6
Continuous
 62
    30
370
    18
100
AcDbLine
 10
387.163895
 20
579.588628
 30
0.0
 11
386.663895
 21
579.588628
 31
0.0
  0
LINE
  5
95
330
1F
100
AcDbEntity
  8
1
  6
Continuous
 62
    30
370
    18
100
AcDbLine
 10
387.163895
 20
579.588448
 30
0.0
 11
387.163895
 21
579.588004
 31
0.0
  0
LINE
  5
96
330
1F
100
AcDbEntity
  8
1
  6
Continuous
 62
    30
370
    18
100
AcDbLine
 10
387.163895
 20
579.588448
 30
0.0
 11
386.663895
 21
579.588448
 31
0.0
  0
LINE
  5
97
330
1F
100
AcDbEntity
  8
1
  6
Continuous
 62
    30
370
    18
100
AcDbLine
 10
387.163895
 20
579.587983
 30
0.0
 11
386.663895
 21
579.587983
 31
0.0
  0
LINE
  5
98
330
1F
100
AcDbEntity
  8
1
  6
Continuous
 62
    30
370
    18
100
AcDbLine
 10
387.163895
 20
579.587794
 30
0.0
 11
387.163895
 21
579.587348
 31
0.0
  0
LINE
  5
99
330
1F
100
AcDbEntity
  8
1
  6
Continuous
 62
    30
370
    18
100
AcDbLine
 10
387.163895
 20
579.587794
 30
0.0
 11
386.663895
 21
579.587794
 31
0.0
  0
LINE
  5
9A
330
1F
100
AcDbEntity
  8
1
  6
Continuous
 62
    30
370
    18
100
AcDbLine
 10
387.163895
 20
579.587327
 30
0.0
 11
386.663895
 21
579.587327
 31
0.0
  0
LINE
  5
9B
330
1F
100
AcDbEntity
  8
1
  6
Continuous
 62
    30
370
    18
100
AcDbLine
 10
387.163895
 20
579.587136
 30
0.0
 11
386.663895
 21
579.587136
 31
0.0
  0
LINE
  5
9C
330
1F
100
AcDbEntity
  8
1
  6
Continuous
 62
    30
370
    18
100
AcDbLine
 10
373.163895
 20
575.660979
 30
0.0
 11
373.663895
 21
575.660979
 31
0.0
  0
LINE
  5
9D
330
1F
100
AcDbEntity
  8
1
  6
Continuous
 62
    30
370
    18
100
AcDbLine
 10
373.163895
 20
580.498229
 30
0.0
 11
373.163895
 21
580.09818
 31
0.0
  0
LINE
  5
9E
330
1F
100
AcDbEntity
  8
1
  6
Continuous
 62
    30
370
    13
100
AcDbLine
 10
387.163895
 20
578.628722
 30
0.0
 11
386.663895
 21
578.628722
 31
0.0
  0
LINE
  5
9F
330
1F
100
AcDbEntity
  8
1
  6
Continuous
 62
    30
370
    18
100
AcDbLine
 10
373.163895
 20
575.867857
 30
0.0
 11
373.663895
 21
575.867857
 31
0.0
  0
LINE
  5
A0
330
1F
100
AcDbEntity
  8
1
  6
Continuous
 62
    30
370
    18
100
AcDbLine
 10
373.163895
 20
578.349661
 30
0.0
 11
373.663895
 21
578.349661
 31
0.0
  0
LINE
  5
A1
330
1F
100
AcDbEntity
  8
1
  6
Continuous
 62
    30
370
    18
100
AcDbLine
 10
373.163895
 20
578.222283
 30
0.0
 11
373.663895
 21
578.222283
 31
0.0
  0
LINE
  5
A2
330
1F
100
AcDbEntity
  8
1
  6
Continuous
 62
    30
370
    18
100
AcDbLine
 10
387.163895
 20
575.427189
 30
0.0
 11
386.663895
 21
575.427189
 31
0.0
  0
LINE
  5
A3
330
1F
100
AcDbEntity
  8
1
  6
Continuous
 62
    30
370
    18
100
AcDbLine
 10
387.163895
 20
578.221034
 30
0.0
 11
386.663895
 21
578.221034
 31
0.0
  0
LINE
  5
A4
330
1F
100
AcDbEntity
  8
1
  6
Continuous
 62
    30
370
    18
100
AcDbLine
 10
387.163895
 20
578.346998
 30
0.0
 11
386.663895
 21
578.346998
 31
0.0
  0
LINE
  5
A5
330
1F
100
AcDbEntity
  8
1
  6
Continuous
 62
    30
370
    18
100
AcDbLine
 10
373.163895
 20
580.098158
 30
0.0
 11
373.163895
 21
579.648158
 31
0.0
  0
LINE
  5
A6
330
1F
100
AcDbEntity
  8
1
  6
Continuous
 62
    30
370
    18
100
AcDbLine
 10
373.163895
 20
579.648158
 30
0.0
 11
373.163895
 21
579.618315
 31
0.0
  0
LINE
  5
A7
330
1F
100
AcDbEntity
  8
1
  6
Continuous
 62
    30
370
    18
100
AcDbLine
 10
373.163895
 20
579.618319
 30
0.0
 11
373.163895
 21
579.168319
 31
0.0
  0
LINE
  5
A8
330
1F
100
AcDbEntity
  8
1
  6
Continuous
 62
    30
370
    18
100
AcDbLine
 10
373.163895
 20
579.168319
 30
0.0
 11
373.163895
 21
578.718319
 31
0.0
  0
LINE
  5
A9
330
1F
100
AcDbEntity
  8
1
  6
Continuous
 62
    30
370
    18
100
AcDbLine
 10
364.490904
 20
556.416741
 30
0.0
 11
367.163895
 21
556.416741
 31
0.0
  0
LINE
  5
AA
330
1F
100
AcDbEntity
  8
1
  6
Continuous
 62
    30
370
    18
100
AcDbLine
 10
373.663895
 20
582.029236
 30
0.0
 11
373.663895
 21
566.007971
 31
0.0
  0
LINE
  5
AB
330
1F
100
AcDbEntity
  8
1
  6
Continuous
 62
    30
370
    13
100
AcDbLine
 10
376.007645
 20
565.931327
 30
0.0
 11
376.007645
 21
584.956578
 31
0.0
  0
LINE
  5
AC
330
1F
100
AcDbEntity
  8
1
  6
Continuous
 62
    30
370
    13
100
AcDbLine
 10
361.491883
 20
553.340096
 30
0.0
 11
364.67635
 21
553.340096
 31
0.0
  0
LINE
  5
AD
330
1F
100
AcDbEntity
  8
1
  6
Continuous
 62
    30
370
    18
100
AcDbLine
 10
395.836885
 20
556.416741
 30
0.0
 11
393.163895
 21
556.416741
 31
0.0
  0
LINE
  5
AE
330
1F
100
AcDbEntity
  8
1
  6
Continuous
 62
    30
370
    18
100
AcDbLine
 10
386.663895
 20
582.029236
 30
0.0
 11
386.663895
 21
566.007971
 31
0.0
  0
LINE
  5
AF
330
1F
100
AcDbEntity
  8
1
  6
Continuous
 62
    30
370
    13
100
AcDbLine
 10
384.320145
 20
565.931327
 30
0.0
 11
384.320145
 21
584.956578
 31
0.0
  0
LINE
  5
B0
330
1F
100
AcDbEntity
  8
1
  6
Continuous
 62
    30
370
    18
100
AcDbLine
 10
398.812309
 20
552.416741
 30
0.0
 11
361.515481
 21
552.416741
 31
0.0
  0
LINE
  5
B1
330
1F
100
AcDbEntity
  8
1
  6
Continuous
 62
    30
370
    13
100
AcDbLine
 10
398.835906
 20
553.340096
 30
0.0
 11
395.65144
 21
553.340096
 31
0.0
  0
LINE
  5
B2
330
1F
100
AcDbEntity
  8
1
  6
Continuous
 62
    30
370
    13
100
AcDbLine
 10
384.320145
 20
565.931327
 30
0.0
 11
376.007645
 21
565.931327
 31
0.0
  0
LINE
  5
B3
330
1F
100
AcDbEntity
  8
1
  6
Continuous
 62
   252
370
    18
100
AcDbLine
 10
398.719189
 20
552.416741
 30
0.0
 11
398.812309
 21
552.416741
 31
0.0
  0
LINE
  5
B4
330
1F
100
AcDbEntity
  8
1
  6
Continuous
 62
   252
370
    18
100
AcDbLine
 10
361.608601
 20
552.416741
 30
0.0
 11
361.515481
 21
552.416741
 31
0.0
  0
LINE
  5
B5
330
1F
100
AcDbEntity
  8
1
  6
Continuous
 62
   252
370
    18
100
AcDbLine
 10
374.163895
 20
509.416741
 30
0.0
 11
380.163895
 21
509.416741
 31
0.0
  0
LINE
  5
B6
330
1F
100
AcDbEntity
  8
1
  6
Continuous
 62
   252
370
    18
100
AcDbLine
 10
380.163895
 20
509.416741
 30
0.0
 11
386.163895
 21
509.416741
 31
0.0
  0
LINE
  5
B7
330
1F
100
AcDbEntity
  8
1
  6
Continuous
 62
   252
370
    18
100
AcDbLine
 10
387.163895
 20
510.416741
 30
0.0
 11
380.163895
 21
510.416741
 31
0.0
  0
LINE
  5
B8
330
1F
100
AcDbEntity
  8
1
  6
Continuous
 62
   252
370
    18
100
AcDbLine
 10
380.163895
 20
510.416741
 30
0.0
 11
373.163895
 21
510.416741
 31
0.0
  0
LINE
  5
B9
330
1F
100
AcDbEntity
  8
1
  6
Continuous
 62
   252
370
    13
100
AcDbLine
 10
387.163895
 20
530.416741
 30
0.0
 11
373.163895
 21
530.416741
 31
0.0
  0
LINE
  5
BA
330
1F
100
AcDbEntity
  8
1
  6
Continuous
 62
   252
370
    18
100
AcDbLine
 10
361.608601
 20
538.416741
 30
0.0
 11
361.608601
 21
552.416741
 31
0.0
  0
LINE
  5
BB
330
1F
100
AcDbEntity
  8
1
  6
Continuous
 62
   252
370
    18
100
AcDbLine
 10
398.719189
 20
552.416741
 30
0.0
 11
398.719189
 21
538.416741
 31
0.0
  0
LINE
  5
BC
330
1F
100
AcDbEntity
  8
1
  6
Continuous
 62
   252
370
    18
100
AcDbLine
 10
391.053464
 20
552.416741
 30
0.0
 11
387.829619
 21
552.416741
 31
0.0
  0
LINE
  5
BD
330
1F
100
AcDbEntity
  8
1
  6
Continuous
 62
   252
370
    18
100
AcDbLine
 10
391.053464
 20
538.416741
 30
0.0
 11
391.053464
 21
552.416741
 31
0.0
  0
LINE
  5
BE
330
1F
100
AcDbEntity
  8
1
  6
Continuous
 62
   252
370
    18
100
AcDbLine
 10
387.829619
 20
552.416741
 30
0.0
 11
387.829619
 21
538.416741
 31
0.0
  0
LINE
  5
BF
330
1F
100
AcDbEntity
  8
1
  6
Continuous
 62
   252
370
    18
100
AcDbLine
 10
372.49817
 20
538.416741
 30
0.0
 11
372.49817
 21
552.416741
 31
0.0
  0
LINE
  5
C0
330
1F
100
AcDbEntity
  8
1
  6
Continuous
 62
   252
370
    18
100
AcDbLine
 10
372.49817
 20
552.416741
 30
0.0
 11
369.274325
 21
552.416741
 31
0.0
  0
LINE
  5
C1
330
1F
100
AcDbEntity
  8
1
  6
Continuous
 62
   252
370
    18
100
AcDbLine
 10
369.274325
 20
552.416741
 30
0.0
 11
369.274325
 21
538.416741
 31
0.0
  0
LINE
  5
C2
330
1F
100
AcDbEntity
  8
1
  6
Continuous
 62
   252
370
    18
100
AcDbLine
 10
399.163895
 20
538.416741
 30
0.0
 11
361.163895
 21
538.416741
 31
0.0
  0
LINE
  5
C3
330
1F
100
AcDbEntity
  8
1
  6
Continuous
 62
   252
370
    13
100
AcDbLine
 10
399.163895
 20
532.416741
 30
0.0
 11
361.163895
 21
532.416741
 31
0.0
  0
LINE
  5
C4
330
1F
100
AcDbEntity
  8
1
  6
Continuous
 62
   252
370
    18
100
AcDbLine
 10
398.163895
 20
531.416741
 30
0.0
 11
362.163895
 21
531.416741
 31
0.0
  0
LINE
  5
C5
330
1F
100
AcDbEntity
  8
2
  6
Continuous
 62
    30
370
    18
100
AcDbLine
 10
818.047911
 20
615.916741
 30
0.0
 11
818.047911
 21
639.916741
 31
0.0
  0
LINE
  5
C6
330
1F
100
AcDbEntity
  8
2
  6
Continuous
 62
    30
370
    18
100
AcDbLine
 10
805.047911
 20
639.916741
 30
0.0
 11
805.047911
 21
615.916741
 31
0.0
  0
LINE
  5
C7
330
1F
100
AcDbEntity
  8
2
  6
Continuous
 62
    30
370
    18
100
AcDbLine
 10
805.047911
 20
590.916741
 30
0.0
 11
805.047911
 21
566.916741
 31
0.0
  0
LINE
  5
C8
330
1F
100
AcDbEntity
  8
2
  6
Continuous
 62
    30
370
    18
100
AcDbLine
 10
818.047911
 20
566.916741
 30
0.0
 11
818.047911
 21
590.916741
 31
0.0
  0
LINE
  5
C9
330
1F
100
AcDbEntity
  8
2
  6
Continuous
 62
    30
370
    18
100
AcDbLine
 10
818.047911
 20
590.916741
 30
0.0
 11
818.047911
 21
615.916741
 31
0.0
  0
LINE
  5
CA
330
1F
100
AcDbEntity
  8
2
  6
Continuous
 62
    30
370
    18
100
AcDbLine
 10
805.047911
 20
615.916741
 30
0.0
 11
805.047911
 21
590.916741
 31
0.0
  0
LINE
  5
CB
330
1F
100
AcDbEntity
  8
1
  6
Continuous
 62
    30
370
    18
100
AcDbLine
 10
792.554112
 20
565.931327
 30
0.0
 11
792.899497
 21
552.416741
 31
0.0
  0
LINE
  5
CC
330
1F
100
AcDbEntity
  8
1
  6
Continuous
 62
    30
370
    18
100
AcDbLine
 10
830.196324
 20
552.416741
 30
0.0
 11
830.541709
 21
565.931327
 31
0.0
  0
LINE
  5
CD
330
1F
100
AcDbEntity
  8
1
  6
Continuous
 62
   252
370
    18
100
AcDbLine
 10
818.547911
 20
510.416741
 30
0.0
 11
818.547911
 21
530.416741
 31
0.0
  0
LINE
  5
CE
330
1F
100
AcDbEntity
  8
1
  6
Continuous
 62
   252
370
    18
100
AcDbLine
 10
804.547911
 20
530.416741
 30
0.0
 11
804.547911
 21
510.416741
 31
0.0
  0
LINE
  5
CF
330
1F
100
AcDbEntity
  8
1
  6
Continuous
 62
   252
370
    18
100
AcDbLine
 10
817.547911
 20
509.416741
 30
0.0
 11
818.547911
 21
510.416741
 31
0.0
  0
LINE
  5
D0
330
1F
100
AcDbEntity
  8
1
  6
Continuous
 62
   252
370
    18
100
AcDbLine
 10
804.547911
 20
510.416741
 30
0.0
 11
805.547911
 21
509.416741
 31
0.0
  0
LINE
  5
D1
330
1F
100
AcDbEntity
  8
1
  6
Continuous
 62
   252
370
    18
100
AcDbLine
 10
792.547911
 20
538.416741
 30
0.0
 11
792.547911
 21
532.416741
 31
0.0
  0
LINE
  5
D2
330
1F
100
AcDbEntity
  8
1
  6
Continuous
 62
   252
370
    18
100
AcDbLine
 10
830.547911
 20
532.416741
 30
0.0
 11
830.547911
 21
538.416741
 31
0.0
  0
LINE
  5
D3
330
1F
100
AcDbEntity
  8
2
  6
Continuous
 62
    30
370
    13
100
AcDbLine
 10
805.047911
 20
590.916741
 30
0.0
 11
818.047911
 21
590.916741
 31
0.0
  0
LINE
  5
D4
330
1F
100
AcDbEntity
  8
2
  6
Continuous
 62
    30
370
    13
100
AcDbLine
 10
805.047911
 20
615.916741
 30
0.0
 11
818.047911
 21
615.916741
 31
0.0
  0
LINE
  5
D5
330
1F
100
AcDbEntity
  8
1
  6
Continuous
 62
    30
370
    13
100
AcDbLine
 10
827.155053
 20
566.007971
 30
0.0
 11
830.081393
 21
565.931327
 31
0.0
  0
LINE
  5
D6
330
1F
100
AcDbEntity
  8
1
  6
Continuous
 62
    30
370
    13
100
AcDbLine
 10
795.940768
 20
566.007971
 30
0.0
 11
793.014429
 21
565.931327
 31
0.0
  0
LINE
  5
D7
330
1F
100
AcDbEntity
  8
1
  6
Continuous
 62
    30
370
    13
100
AcDbLine
 10
796.021741
 20
562.916741
 30
0.0
 11
800.223159
 21
562.916741
 31
0.0
  0
LINE
  5
D8
330
1F
100
AcDbEntity
  8
1
  6
Continuous
 62
    30
370
    13
100
AcDbLine
 10
822.872662
 20
562.916741
 30
0.0
 11
827.07408
 21
562.916741
 31
0.0
  0
LINE
  5
D9
330
1F
100
AcDbEntity
  8
1
  6
Continuous
 62
    30
370
    13
100
AcDbLine
 10
803.177442
 20
563.43848
 30
0.0
 11
800.223159
 21
562.916741
 31
0.0
  0
LINE
  5
DA
330
1F
100
AcDbEntity
  8
1
  6
Continuous
 62
    30
370
    13
100
AcDbLine
 10
819.918379
 20
563.43848
 30
0.0
 11
822.872662
 21
562.916741
 31
0.0
  0
LINE
  5
DB
330
1F
100
AcDbEntity
  8
1
  6
Continuous
 62
    30
370
    13
100
AcDbLine
 10
793.096134
 20
562.840096
 30
0.0
 11
796.021741
 21
562.916741
 31
0.0
  0
LINE
  5
DC
330
1F
100
AcDbEntity
  8
1
  6
Continuous
 62
    30
370
    13
100
AcDbLine
 10
827.07408
 20
562.916741
 30
0.0
 11
829.999687
 21
562.840096
 31
0.0
  0
LINE
  5
DD
330
1F
100
AcDbEntity
  8
1
  6
Continuous
 62
    30
370
    18
100
AcDbLine
 10
802.793333
 20
556.416741
 30
0.0
 11
820.302489
 21
556.416741
 31
0.0
  0
LINE
  5
DE
330
1F
100
AcDbEntity
  8
1
  6
Continuous
 62
    30
370
    13
100
AcDbLine
 10
821.977674
 20
553.340096
 30
0.0
 11
801.118148
 21
553.340096
 31
0.0
  0
LINE
  5
DF
330
1F
100
AcDbEntity
  8
1
  6
Continuous
 62
    30
370
    18
100
AcDbLine
 10
792.899497
 20
552.416741
 30
0.0
 11
830.196324
 21
552.416741
 31
0.0
  0
LINE
  5
E0
330
1F
100
AcDbEntity
  8
1
  6
Continuous
 62
    30
370
    13
100
AcDbLine
 10
792.554112
 20
565.931327
 30
0.0
 11
793.014429
 21
565.931327
 31
0.0
  0
LINE
  5
E1
330
1F
100
AcDbEntity
  8
1
  6
Continuous
 62
    30
370
    13
100
AcDbLine
 10
830.541709
 20
565.931327
 30
0.0
 11
830.081393
 21
565.931327
 31
0.0
  0
LINE
  5
E2
330
1F
100
AcDbEntity
  8
1
  6
Continuous
 62
   252
370
    18
100
AcDbLine
 10
817.547911
 20
509.416741
 30
0.0
 11
805.547911
 21
509.416741
 31
0.0
  0
LINE
  5
E3
330
1F
100
AcDbEntity
  8
1
  6
Continuous
 62
   252
370
    18
100
AcDbLine
 10
818.547911
 20
510.416741
 30
0.0
 11
804.547911
 21
510.416741
 31
0.0
  0
LINE
  5
E4
330
1F
100
AcDbEntity
  8
1
  6
Continuous
 62
   252
370
    13
100
AcDbLine
 10
818.547911
 20
530.416741
 30
0.0
 11
804.547911
 21
530.416741
 31
0.0
  0
LINE
  5
E5
330
1F
100
AcDbEntity
  8
1
  6
Continuous
 62
   252
370
    18
100
AcDbLine
 10
796.409198
 20
552.416741
 30
0.0
 11
794.547911
 21
552.416741
 31
0.0
  0
LINE
  5
E6
330
1F
100
AcDbEntity
  8
1
  6
Continuous
 62
   252
370
    18
100
AcDbLine
 10
794.547911
 20
552.416741
 30
0.0
 11
794.547911
 21
538.416741
 31
0.0
  0
LINE
  5
E7
330
1F
100
AcDbEntity
  8
1
  6
Continuous
 62
   252
370
    18
100
AcDbLine
 10
828.547911
 20
552.416741
 30
0.0
 11
826.686623
 21
552.416741
 31
0.0
  0
LINE
  5
E8
330
1F
100
AcDbEntity
  8
1
  6
Continuous
 62
   252
370
    18
100
AcDbLine
 10
828.547911
 20
538.416741
 30
0.0
 11
828.547911
 21
552.416741
 31
0.0
  0
LINE
  5
E9
330
1F
100
AcDbEntity
  8
1
  6
Continuous
 62
   252
370
    18
100
AcDbLine
 10
826.686623
 20
552.416741
 30
0.0
 11
826.686623
 21
538.416741
 31
0.0
  0
LINE
  5
EA
330
1F
100
AcDbEntity
  8
1
  6
Continuous
 62
   252
370
    18
100
AcDbLine
 10
796.409198
 20
538.416741
 30
0.0
 11
796.409198
 21
552.416741
 31
0.0
  0
LINE
  5
EB
330
1F
100
AcDbEntity
  8
1
  6
Continuous
 62
   252
370
    18
100
AcDbLine
 10
813.409198
 20
538.416741
 30
0.0
 11
813.409198
 21
552.416741
 31
0.0
  0
LINE
  5
EC
330
1F
100
AcDbEntity
  8
1
  6
Continuous
 62
   252
370
    18
100
AcDbLine
 10
813.409198
 20
552.416741
 30
0.0
 11
809.686623
 21
552.416741
 31
0.0
  0
LINE
  5
ED
330
1F
100
AcDbEntity
  8
1
  6
Continuous
 62
   252
370
    18
100
AcDbLine
 10
809.686623
 20
552.416741
 30
0.0
 11
809.686623
 21
538.416741
 31
0.0
  0
LINE
  5
EE
330
1F
100
AcDbEntity
  8
1
  6
Continuous
 62
   252
370
    18
100
AcDbLine
 10
830.547911
 20
538.416741
 30
0.0
 11
792.547911
 21
538.416741
 31
0.0
  0
LINE
  5
EF
330
1F
100
AcDbEntity
  8
1
  6
Continuous
 62
   252
370
    13
100
AcDbLine
 10
792.547911
 20
532.416741
 30
0.0
 11
830.547911
 21
532.416741
 31
0.0
  0
LINE
  5
F0
330
1F
100
AcDbEntity
  8
1
  6
Continuous
 62
   252
370
    18
100
AcDbLine
 10
829.547911
 20
531.416741
 30
0.0
 11
793.547911
 21
531.416741
 31
0.0
  0
LINE
  5
F1
330
1F
100
AcDbEntity
  8
2
  6
Continuous
 62
    30
370
    18
100
AcDbLine
 10
356.163895
 20
141.340966
 30
0.0
 11
404.163895
 21
141.340966
 31
0.0
  0
LINE
  5
F2
330
1F
100
AcDbEntity
  8
2
  6
Continuous
 62
    30
370
    18
100
AcDbLine
 10
404.163895
 20
154.340966
 30
0.0
 11
356.163895
 21
154.340966
 31
0.0
  0
LINE
  5
F3
330
1F
100
AcDbEntity
  8
1
  6
Continuous
 62
    30
370
    18
100
AcDbLine
 10
387.163895
 20
155.340966
 30
0.0
 11
386.663895
 21
155.340966
 31
0.0
  0
LINE
  5
F4
330
1F
100
AcDbEntity
  8
1
  6
Continuous
 62
    30
370
    18
100
AcDbLine
 10
386.663895
 20
154.440966
 30
0.0
 11
387.163895
 21
154.440966
 31
0.0
  0
LINE
  5
F5
330
1F
100
AcDbEntity
  8
1
  6
Continuous
 62
    30
370
    18
100
AcDbLine
 10
373.163895
 20
140.340966
 30
0.0
 11
373.663895
 21
140.340966
 31
0.0
  0
LINE
  5
F6
330
1F
100
AcDbEntity
  8
1
  6
Continuous
 62
    30
370
    18
100
AcDbLine
 10
373.663895
 20
141.240966
 30
0.0
 11
373.163895
 21
141.240966
 31
0.0
  0
LINE
  5
F7
330
1F
100
AcDbEntity
  8
1
  6
Continuous
 62
    30
370
    13
100
AcDbLine
 10
364.675538
 20
158.271276
 30
0.0
 11
367.163895
 21
156.595544
 31
0.0
  0
LINE
  5
F8
330
1F
100
AcDbEntity
  8
1
  6
Continuous
 62
    30
370
    13
100
AcDbLine
 10
364.675538
 20
137.410656
 30
0.0
 11
367.163895
 21
139.086388
 31
0.0
  0
LINE
  5
F9
330
1F
100
AcDbEntity
  8
1
  6
Continuous
 62
    30
370
    13
100
AcDbLine
 10
367.163895
 20
139.086388
 30
0.0
 11
367.163895
 21
141.341102
 31
0.0
  0
LINE
  5
FA
330
1F
100
AcDbEntity
  8
1
  6
Continuous
 62
    30
370
    13
100
AcDbLine
 10
367.163895
 20
154.34083
 30
0.0
 11
367.163895
 21
156.595544
 31
0.0
  0
LINE
  5
FB
330
1F
100
AcDbEntity
  8
1
  6
Continuous
 62
    30
370
    18
100
AcDbLine
 10
387.163895
 20
155.340966
 30
0.0
 11
387.163895
 21
154.440966
 31
0.0
  0
LINE
  5
FC
330
1F
100
AcDbEntity
  8
1
  6
Continuous
 62
    30
370
    18
100
AcDbLine
 10
373.163895
 20
140.340966
 30
0.0
 11
373.163895
 21
141.240966
 31
0.0
  0
LINE
  5
FD
330
1F
100
AcDbEntity
  8
1
  6
Continuous
 62
    30
370
    18
100
AcDbLine
 10
373.663895
 20
141.341253
 30
0.0
 11
373.663895
 21
132.228471
 31
0.0
  0
LINE
  5
FE
330
1F
100
AcDbEntity
  8
1
  6
Continuous
 62
    30
370
    18
100
AcDbLine
 10
373.663895
 20
163.453461
 30
0.0
 11
373.663895
 21
154.340679
 31
0.0
  0
LINE
  5
FF
330
1F
100
AcDbEntity
  8
1
  6
Continuous
 62
    30
370
    13
100
AcDbLine
 10
376.007645
 20
166.380804
 30
0.0
 11
376.007645
 21
154.340362
 31
0.0
  0
LINE
  5
100
330
1F
100
AcDbEntity
  8
1
  6
Continuous
 62
    30
370
    13
100
AcDbLine
 10
376.007645
 20
141.341571
 30
0.0
 11
376.007645
 21
129.301128
 31
0.0
  0
LINE
  5
101
330
1F
100
AcDbEntity
  8
1
  6
Continuous
 62
    30
370
    13
100
AcDbLine
 10
395.652252
 20
137.410656
 30
0.0
 11
393.163895
 21
139.086388
 31
0.0
  0
LINE
  5
102
330
1F
100
AcDbEntity
  8
1
  6
Continuous
 62
    30
370
    13
100
AcDbLine
 10
393.163895
 20
141.341102
 30
0.0
 11
393.163895
 21
139.086388
 31
0.0
  0
LINE
  5
103
330
1F
100
AcDbEntity
  8
1
  6
Continuous
 62
    30
370
    13
100
AcDbLine
 10
393.163895
 20
156.595544
 30
0.0
 11
393.163895
 21
154.34083
 31
0.0
  0
LINE
  5
104
330
1F
100
AcDbEntity
  8
1
  6
Continuous
 62
    30
370
    13
100
AcDbLine
 10
395.652252
 20
158.271276
 30
0.0
 11
393.163895
 21
156.595544
 31
0.0
  0
LINE
  5
105
330
1F
100
AcDbEntity
  8
1
  6
Continuous
 62
    30
370
    18
100
AcDbLine
 10
386.663895
 20
154.340679
 30
0.0
 11
386.663895
 21
163.453461
 31
0.0
  0
LINE
  5
106
330
1F
100
AcDbEntity
  8
1
  6
Continuous
 62
    30
370
    18
100
AcDbLine
 10
386.663895
 20
132.228471
 30
0.0
 11
386.663895
 21
141.341253
 31
0.0
  0
LINE
  5
107
330
1F
100
AcDbEntity
  8
1
  6
Continuous
 62
    30
370
    13
100
AcDbLine
 10
384.320145
 20
129.301128
 30
0.0
 11
384.320145
 21
141.341571
 31
0.0
  0
LINE
  5
108
330
1F
100
AcDbEntity
  8
1
  6
Continuous
 62
    30
370
    13
100
AcDbLine
 10
384.320145
 20
154.340362
 30
0.0
 11
384.320145
 21
166.380804
 31
0.0
  0
ARC
  5
109
330
1F
100
AcDbEntity
  8
2
  6
Continuous
 62
    30
370
    18
100
AcDbCircle
 10
380.163895
 20
590.916741
 30
0.0
 40
30.5
100
AcDbArc
 50
180.0
 51
257.205937
  0
ARC
  5
10A
330
1F
100
AcDbEntity
  8
2
  6
Continuous
 62
    30
370
    18
100
AcDbCircle
 10
380.163895
 20
590.916741
 30
0.0
 40
30.5
100
AcDbArc
 50
282.799687
 51
0.0
  0
ARC
  5
10B
330
1F
100
AcDbEntity
  8
2
  6
Continuous
 62
    30
370
    18
100
AcDbCircle
 10
380.163895
 20
615.916741
 30
0.0
 40
30.49999999999999
100
AcDbArc
 50
0.0
 51
180.0
  0
ARC
  5
10C
330
1F
100
AcDbEntity
  8
2
  6
Continuous
 62
    30
370
    18
100
AcDbCircle
 10
380.163895
 20
615.916741
 30
0.0
 40
17.5
100
AcDbArc
 50
0.0
 51
180.0
  0
ARC
  5
10D
330
1F
100
AcDbEntity
  8
1
  6
Continuous
 62
    30
370
    18
100
AcDbCircle
 10
364.490904
 20
553.416741
 30
0.0
 40
3.0
100
AcDbArc
 50
90.0
 51
181.463957
  0
ARC
  5
10E
330
1F
100
AcDbEntity
  8
1
  6
Continuous
 62
    30
370
    18
100
AcDbCircle
 10
395.836885
 20
553.416741
 30
0.0
 40
3.0
100
AcDbArc
 50
358.536043
 51
90.0
  0
ARC
  5
10F
330
1F
100
AcDbEntity
  8
1
  6
Continuous
 62
    30
370
    18
100
AcDbCircle
 10
376.663895
 20
582.029236
 30
0.0
 40
3.0
100
AcDbArc
 50
102.635625
 51
180.0
  0
ARC
  5
110
330
1F
100
AcDbEntity
  8
1
  6
Continuous
 62
    30
370
    18
100
AcDbCircle
 10
380.163895
 20
566.416741
 30
0.0
 40
19.0
100
AcDbArc
 50
77.364375
 51
102.635625
  0
ARC
  5
111
330
1F
100
AcDbEntity
  8
1
  6
Continuous
 62
    30
370
    18
100
AcDbCircle
 10
383.663895
 20
582.029236
 30
0.0
 40
3.0
100
AcDbArc
 50
0.0
 51
77.364375
  0
ARC
  5
112
330
1F
100
AcDbEntity
  8
1
  6
Continuous
 62
   252
370
    18
100
AcDbCircle
 10
372.163895
 20
530.416741
 30
0.0
 40
1.0
100
AcDbArc
 50
0.0
 51
90.0
  0
ARC
  5
113
330
1F
100
AcDbEntity
  8
1
  6
Continuous
 62
   252
370
    18
100
AcDbCircle
 10
388.163895
 20
530.416741
 30
0.0
 40
1.0
100
AcDbArc
 50
90.0
 51
180.0
  0
ARC
  5
114
330
1F
100
AcDbEntity
  8
1
  6
Continuous
 62
   252
370
    18
100
AcDbCircle
 10
362.163895
 20
532.416741
 30
0.0
 40
1.0
100
AcDbArc
 50
180.0
 51
270.0
  0
ARC
  5
115
330
1F
100
AcDbEntity
  8
1
  6
Continuous
 62
   252
370
    18
100
AcDbCircle
 10
398.163895
 20
532.416741
 30
0.0
 40
1.0
100
AcDbArc
 50
270.0
 51
0.0
  0
ARC
  5
116
330
1F
100
AcDbEntity
  8
2
  6
Continuous
 62
    30
370
    18
100
AcDbCircle
 10
380.163895
 20
590.916741
 30
0.0
 40
17.5
100
AcDbArc
 50
291.8025
 51
0.0
  0
ARC
  5
117
330
1F
100
AcDbEntity
  8
2
  6
Continuous
 62
    30
370
    18
100
AcDbCircle
 10
380.163895
 20
590.916741
 30
0.0
 40
17.5
100
AcDbArc
 50
180.0
 51
248.1975
  0
ARC
  5
118
330
1F
100
AcDbEntity
  8
2
  6
Continuous
 62
    30
370
    18
100
AcDbCircle
 10
811.547911
 20
639.916741
 30
0.0
 40
6.500000000000001
100
AcDbArc
 50
0.0
 51
180.0
  0
ARC
  5
119
330
1F
100
AcDbEntity
  8
2
  6
Continuous
 62
    30
370
    18
100
AcDbCircle
 10
811.547911
 20
566.916741
 30
0.0
 40
6.500000000000001
100
AcDbArc
 50
180.0
 51
0.0
  0
ARC
  5
11A
330
1F
100
AcDbEntity
  8
1
  6
Continuous
 62
    30
370
    18
100
AcDbCircle
 10
811.547911
 20
566.416741
 30
0.0
 40
19.0
100
AcDbArc
 50
0.0
 51
69.996885
  0
ARC
  5
11B
330
1F
100
AcDbEntity
  8
1
  6
Continuous
 62
    30
370
    18
100
AcDbCircle
 10
811.547911
 20
566.416741
 30
0.0
 40
19.0
100
AcDbArc
 50
110.004018
 51
181.463957
  0
ARC
  5
11C
330
1F
100
AcDbEntity
  8
1
  6
Continuous
 62
    30
370
    18
100
AcDbCircle
 10
811.547911
 20
566.416741
 30
0.0
 40
19.0
100
AcDbArc
 50
358.536043
 51
0.0
  0
ARC
  5
11D
330
1F
100
AcDbEntity
  8
1
  6
Continuous
 62
   252
370
    18
100
AcDbCircle
 10
803.547911
 20
530.416741
 30
0.0
 40
1.0
100
AcDbArc
 50
0.0
 51
90.0
  0
ARC
  5
11E
330
1F
100
AcDbEntity
  8
1
  6
Continuous
 62
   252
370
    18
100
AcDbCircle
 10
819.547911
 20
530.416741
 30
0.0
 40
1.0
100
AcDbArc
 50
90.0
 51
180.0
  0
ARC
  5
11F
330
1F
100
AcDbEntity
  8
1
  6
Continuous
 62
   252
370
    18
100
AcDbCircle
 10
793.547911
 20
532.416741
 30
0.0
 40
1.0
100
AcDbArc
 50
180.0
 51
270.0
  0
ARC
  5
120
330
1F
100
AcDbEntity
  8
1
  6
Continuous
 62
   252
370
    18
100
AcDbCircle
 10
829.547911
 20
532.416741
 30
0.0
 40
1.0
100
AcDbArc
 50
270.0
 51
0.0
  0
ARC
  5
121
330
1F
100
AcDbEntity
  8
1
  6
Continuous
 62
    30
370
    18
100
AcDbCircle
 10
811.547911
 20
564.916741
 30
0.0
 40
8.5
100
AcDbArc
 50
349.98459
 51
40.120439
  0
ARC
  5
122
330
1F
100
AcDbEntity
  8
1
  6
Continuous
 62
    30
370
    18
100
AcDbCircle
 10
811.547911
 20
564.916741
 30
0.0
 40
8.5
100
AcDbArc
 50
139.879561
 51
190.01541
  0
ARC
  5
123
330
1F
100
AcDbEntity
  8
1
  6
Continuous
 62
    30
370
    13
100
AcDbCircle
 10
811.547911
 20
564.916741
 30
0.0
 40
11.5
100
AcDbArc
 50
124.414677
 51
190.01541
  0
ARC
  5
124
330
1F
100
AcDbEntity
  8
1
  6
Continuous
 62
    30
370
    13
100
AcDbCircle
 10
811.547911
 20
564.916741
 30
0.0
 40
11.5
100
AcDbArc
 50
349.98459
 51
55.585323
  0
ARC
  5
125
330
1F
100
AcDbEntity
  8
1
  6
Continuous
 62
    30
370
    13
100
AcDbCircle
 10
811.547911
 20
566.416741
 30
0.0
 40
18.53983780774525
100
AcDbArc
 50
110.521801
 51
181.500301
  0
ARC
  5
126
330
1F
100
AcDbEntity
  8
1
  6
Continuous
 62
    30
370
    13
100
AcDbCircle
 10
811.547911
 20
566.416741
 30
0.0
 40
18.53983780774525
100
AcDbArc
 50
358.499699
 51
69.478199
  0
ARC
  5
127
330
1F
100
AcDbEntity
  8
1
  6
Continuous
 62
    30
370
    13
100
AcDbCircle
 10
811.547911
 20
566.416741
 30
0.0
 40
15.61249499599599
100
AcDbArc
 50
358.499699
 51
65.397858
  0
ARC
  5
128
330
1F
100
AcDbEntity
  8
1
  6
Continuous
 62
    30
370
    13
100
AcDbCircle
 10
811.547911
 20
566.416741
 30
0.0
 40
15.61249499599599
100
AcDbArc
 50
114.602142
 51
181.500301
  0
CIRCLE
  5
129
330
1F
100
AcDbEntity
  8
1
  6
Continuous
 62
    30
370
    18
100
AcDbCircle
 10
818.597911
 20
579.168319
 30
0.0
 40
0.4500000000000011
  0
ARC
  5
12A
330
1F
100
AcDbEntity
  8
1
  6
Continuous
 62
    30
370
    18
100
AcDbCircle
 10
380.163895
 20
147.840966
 30
0.0
 40
18.67299058929612
100
AcDbArc
 50
326.04253
 51
339.629761
  0
ARC
  5
12B
330
1F
100
AcDbEntity
  8
1
  6
Continuous
 62
    30
370
    18
100
AcDbCircle
 10
380.163895
 20
147.840966
 30
0.0
 40
18.67299058929612
100
AcDbArc
 50
20.370239
 51
33.95747
  0
ARC
  5
12C
330
1F
100
AcDbEntity
  8
1
  6
Continuous
 62
    30
370
    18
100
AcDbCircle
 10
380.163895
 20
147.840966
 30
0.0
 40
18.67299058929612
100
AcDbArc
 50
146.04253
 51
159.629761
  0
ARC
  5
12D
330
1F
100
AcDbEntity
  8
1
  6
Continuous
 62
    30
370
    18
100
AcDbCircle
 10
380.163895
 20
147.840966
 30
0.0
 40
18.67299058929612
100
AcDbArc
 50
200.370239
 51
213.95747
  0
ARC
  5
12E
330
1F
100
AcDbEntity
  8
1
  6
Continuous
 62
    30
370
    18
100
AcDbCircle
 10
383.663895
 20
132.228471
 30
0.0
 40
3.0
100
AcDbArc
 50
282.635625
 51
0.0
  0
ARC
  5
12F
330
1F
100
AcDbEntity
  8
1
  6
Continuous
 62
    30
370
    18
100
AcDbCircle
 10
383.663895
 20
163.453461
 30
0.0
 40
3.0
100
AcDbArc
 50
0.0
 51
77.364375
  0
ARC
  5
130
330
1F
100
AcDbEntity
  8
1
  6
Continuous
 62
    30
370
    18
100
AcDbCircle
 10
376.663895
 20
163.453461
 30
0.0
 40
3.0
100
AcDbArc
 50
102.635625
 51
180.0
  0
ARC
  5
131
330
1F
100
AcDbEntity
  8
1
  6
Continuous
 62
    30
370
    18
100
AcDbCircle
 10
376.663895
 20
132.228471
 30
0.0
 40
3.0
100
AcDbArc
 50
180.0
 51
257.364375
  0
ARC
  5
132
330
1F
100
AcDbEntity
  8
1
  6
Continuous
 62
    30
370
    18
100
AcDbCircle
 10
380.163895
 20
147.840966
 30
0.0
 40
19.0
100
AcDbArc
 50
270.0
 51
282.635625
  0
ARC
  5
133
330
1F
100
AcDbEntity
  8
1
  6
Continuous
 62
    30
370
    18
100
AcDbCircle
 10
380.163895
 20
147.840966
 30
0.0
 40
19.0
100
AcDbArc
 50
77.364375
 51
102.635625
  0
ARC
  5
134
330
1F
100
AcDbEntity
  8
1
  6
Continuous
 62
    30
370
    18
100
AcDbCircle
 10
380.163895
 20
147.840966
 30
0.0
 40
19.0
100
AcDbArc
 50
257.364375
 51
270.0
  0
ARC
  5
135
330
1F
100
AcDbEntity
  8
2
  6
Continuous
 62
    30
370
    18
100
AcDbCircle
 10
404.163895
 20
147.840966
 30
0.0
 40
6.500000000000001
100
AcDbArc
 50
270.000002
 51
90.0
  0
ARC
  5
136
330
1F
100
AcDbEntity
  8
2
  6
Continuous
 62
    30
370
    18
100
AcDbCircle
 10
356.163895
 20
147.840966
 30
0.0
 40
6.500000000000001
100
AcDbArc
 50
90.0
 51
269.999998
  0
ARC
  5
137
330
1F
100
AcDbEntity
  8
1
  6
Continuous
 62
    30
370
    13
100
AcDbCircle
 10
380.163895
 20
147.840966
 30
0.0
 40
15.67299058929612
100
AcDbArc
 50
146.04253
 51
155.498624
  0
ARC
  5
138
330
1F
100
AcDbEntity
  8
1
  6
Continuous
 62
    30
370
    13
100
AcDbCircle
 10
380.163895
 20
147.840966
 30
0.0
 40
15.67299058929612
100
AcDbArc
 50
204.501376
 51
213.95747
  0
ARC
  5
139
330
1F
100
AcDbEntity
  8
1
  6
Continuous
 62
    30
370
    13
100
AcDbCircle
 10
380.163895
 20
147.840966
 30
0.0
 40
15.67299058929612
100
AcDbArc
 50
326.04253
 51
335.498624
  0
ARC
  5
13A
330
1F
100
AcDbEntity
  8
1
  6
Continuous
 62
    30
370
    13
100
AcDbCircle
 10
380.163895
 20
147.840966
 30
0.0
 40
15.67299058929612
100
AcDbArc
 50
24.501376
 51
33.95747
  0
ARC
  5
13B
330
1F
100
AcDbEntity
  8
1
  6
Continuous
 62
   252
370
    18
100
AcDbCircle
 10
380.163895
 20
147.840966
 30
0.0
 40
19.0
100
AcDbArc
 50
282.633748
 51
339.991874
  0
ARC
  5
13C
330
1F
100
AcDbEntity
  8
1
  6
Continuous
 62
   252
370
    18
100
AcDbCircle
 10
380.163895
 20
147.840966
 30
0.0
 40
19.0
100
AcDbArc
 50
200.002498
 51
257.360625
  0
ARC
  5
13D
330
1F
100
AcDbEntity
  8
1
  6
Continuous
 62
   252
370
    18
100
AcDbCircle
 10
380.163895
 20
147.840966
 30
0.0
 40
19.0
100
AcDbArc
 50
102.639373
 51
159.997499
  0
ARC
  5
13E
330
1F
100
AcDbEntity
  8
1
  6
Continuous
 62
   252
370
    18
100
AcDbCircle
 10
380.163895
 20
147.840966
 30
0.0
 40
19.0
100
AcDbArc
 50
20.008123
 51
77.36625
  0
ELLIPSE
  5
13F
330
1F
100
AcDbEntity
  8
1
  6
Continuous
 62
    30
370
    13
100
AcDbEllipse
 10
376.663895
 20
566.007971
 30
0.0
 11
-3.0
 21
0.0
 31
0.0
210
0.0
220
0.0
230
1.0
 40
0.026182
 41
0.0
 42
1.350263065874062
  0
ELLIPSE
  5
140
330
1F
100
AcDbEntity
  8
1
  6
Continuous
 62
    30
370
    13
100
AcDbEllipse
 10
376.663895
 20
562.916741
 30
0.0
 11
-3.0
 21
0.0
 31
0.0
210
0.0
220
0.0
230
1.0
 40
0.026189
 41
0.0
 42
1.349150171947401
  0
ELLIPSE
  5
141
330
1F
100
AcDbEntity
  8
1
  6
Continuous
 62
    30
370
    13
100
AcDbEllipse
 10
367.163895
 20
553.416741
 30
0.0
 11
0.0
 21
-3.0
 31
0.0
210
0.0
220
0.0
230
1.0
 40
0.829452
 41
3.141592653589793
 42
4.73793984999254
  0
ELLIPSE
  5
142
330
1F
100
AcDbEntity
  8
1
  6
Continuous
 62
    30
370
    13
100
AcDbEllipse
 10
383.663895
 20
566.007971
 30
0.0
 11
3.0
 21
0.0
 31
0.0
210
0.0
220
0.0
230
1.0
 40
0.026182
 41
4.932922241305524
 42
6.283185307179586
  0
ELLIPSE
  5
143
330
1F
100
AcDbEntity
  8
1
  6
Continuous
 62
    30
370
    13
100
AcDbEllipse
 10
393.163895
 20
553.416741
 30
0.0
 11
0.0
 21
-3.0
 31
0.0
210
0.0
220
0.0
230
1.0
 40
0.829452
 41
1.545245457187046
 42
3.141592653589794
  0
ELLIPSE
  5
144
330
1F
100
AcDbEntity
  8
1
  6
Continuous
 62
    30
370
    13
100
AcDbEllipse
 10
383.663895
 20
562.916741
 30
0.0
 11
-3.0
 21
0.0
 31
0.0
210
0.0
220
0.0
230
1.0
 40
0.026189
 41
1.792442481642394
 42
3.141592653589793
  0
ELLIPSE
  5
145
330
1F
100
AcDbEntity
  8
1
  6
Continuous
 62
    30
370
    13
100
AcDbEllipse
 10
820.302489
 20
553.416741
 30
0.0
 11
0.0
 21
-3.0
 31
0.0
210
0.0
220
0.0
230
1.0
 40
0.558577
 41
1.545245457187046
 42
3.141592653589792
  0
ELLIPSE
  5
146
330
1F
100
AcDbEntity
  8
1
  6
Continuous
 62
    30
370
    13
100
AcDbEllipse
 10
802.793333
 20
553.416741
 30
0.0
 11
0.0
 21
-3.0
 31
0.0
210
0.0
220
0.0
230
1.0
 40
0.558577
 41
3.141592653589792
 42
4.73793984999254
  0
SPLINE
  5
147
330
1F
100
AcDbEntity
  8
1
  6
Continuous
 62
    30
370
    18
100
AcDbSpline
210
0.0
220
0.0
230
1.0
 70
    24
 71
     3
 72
     8
 73
     4
 74
     0
 42
0.000000001
 43
0.0000000001
 40
0.0
 40
0.0
 40
0.0
 40
0.0
 40
1.0
 40
1.0
 40
1.0
 40
1.0
 10
373.163894835741
 20
575.4271893954574
 30
0.0
 10
373.163894835741
 20
575.4733091286965
 30
0.0
 10
373.163894835741
 20
575.5194288619357
 30
0.0
 10
373.163894835741
 20
575.5655485951748
 30
0.0
  0
SPLINE
  5
148
330
1F
100
AcDbEntity
  8
1
  6
Continuous
 62
    30
370
    18
100
AcDbSpline
210
0.0
220
0.0
230
1.0
 70
    24
 71
     3
 72
     8
 73
     4
 74
     0
 42
0.000000001
 43
0.0000000001
 40
0.0
 40
0.0
 40
0.0
 40
0.0
 40
1.0
 40
1.0
 40
1.0
 40
1.0
 10
373.163894835741
 20
575.5655485951748
 30
0.0
 10
373.163894835741
 20
575.5871219285082
 30
0.0
 10
373.163894835741
 20
575.6086952618416
 30
0.0
 10
373.163894835741
 20
575.6302685951749
 30
0.0
  0
SPLINE
  5
149
330
1F
100
AcDbEntity
  8
1
  6
Continuous
 62
    30
370
    18
100
AcDbSpline
210
0.0
220
0.0
230
1.0
 70
    24
 71
     3
 72
     8
 73
     4
 74
     0
 42
0.000000001
 43
0.0000000001
 40
0.0
 40
0.0
 40
0.0
 40
0.0
 40
1.0
 40
1.0
 40
1.0
 40
1.0
 10
387.163894835741
 20
579.5886279617175
 30
0.0
 10
387.163894835741
 20
579.588567938256
 30
0.0
 10
387.163894835741
 20
579.5885079147945
 30
0.0
 10
387.163894835741
 20
579.588447891333
 30
0.0
  0
SPLINE
  5
14A
330
1F
100
AcDbEntity
  8
1
  6
Continuous
 62
    30
370
    18
100
AcDbSpline
210
0.0
220
0.0
230
1.0
 70
    24
 71
     3
 72
     8
 73
     4
 74
     0
 42
0.000000001
 43
0.0000000001
 40
0.0
 40
0.0
 40
0.0
 40
0.0
 40
1.0
 40
1.0
 40
1.0
 40
1.0
 10
387.163894835741
 20
579.5879833174198
 30
0.0
 10
387.163894835741
 20
579.5879200944134
 30
0.0
 10
387.163894835741
 20
579.5878568714071
 30
0.0
 10
387.163894835741
 20
579.5877936484006
 30
0.0
  0
SPLINE
  5
14B
330
1F
100
AcDbEntity
  8
1
  6
Continuous
 62
    30
370
    18
100
AcDbSpline
210
0.0
220
0.0
230
1.0
 70
    24
 71
     3
 72
     8
 73
     4
 74
     0
 42
0.000000001
 43
0.0000000001
 40
0.0
 40
0.0
 40
0.0
 40
0.0
 40
1.0
 40
1.0
 40
1.0
 40
1.0
 10
387.163894835741
 20
579.5873267708153
 30
0.0
 10
387.163894835741
 20
579.5872630358816
 30
0.0
 10
387.163894835741
 20
579.5871993009481
 30
0.0
 10
387.163894835741
 20
579.5871355660146
 30
0.0
  0
SPLINE
  5
14C
330
1F
100
AcDbEntity
  8
1
  6
Continuous
 62
    30
370
    18
100
AcDbSpline
210
0.0
220
0.0
230
1.0
 70
    24
 71
     3
 72
     8
 73
     4
 74
     0
 42
0.000000001
 43
0.0000000001
 40
0.0
 40
0.0
 40
0.0
 40
0.0
 40
1.0
 40
1.0
 40
1.0
 40
1.0
 10
387.163894835741
 20
579.5871355660146
 30
0.0
 10
387.163894835741
 20
579.5136898993479
 30
0.0
 10
387.163894835741
 20
579.4402442326812
 30
0.0
 10
387.163894835741
 20
579.3667985660145
 30
0.0
  0
SPLINE
  5
14D
330
1F
100
AcDbEntity
  8
1
  6
Continuous
 62
    30
370
    18
100
AcDbSpline
210
0.0
220
0.0
230
1.0
 70
    24
 71
     3
 72
    12
 73
     8
 74
     0
 42
0.000000001
 43
0.0000000001
 40
0.0
 40
0.0
 40
0.0
 40
0.0
 40
0.1649262990112095
 40
0.1649262990112095
 40
0.8944237103104938
 40
0.8944237103104938
 40
1.0
 40
1.0
 40
1.0
 40
1.0
 10
387.163894835741
 20
579.3624214813934
 30
0.0
 10
387.163894835741
 20
579.3624840157328
 30
0.0
 10
387.1638948357411
 20
579.3550000680503
 30
0.0
 10
387.163894835741
 20
579.2739735867341
 30
0.0
 10
387.163894835741
 20
579.118143990934
 30
0.0
 10
387.1638948357411
 20
578.8380702281453
 30
0.0
 10
387.1638948357411
 20
578.8017041357646
 30
0.0
 10
387.1638948357411
 20
578.7643832586947
 30
0.0
  0
SPLINE
  5
14E
330
1F
100
AcDbEntity
  8
1
  6
Continuous
 62
    30
370
    18
100
AcDbSpline
210
0.0
220
0.0
230
1.0
 70
    24
 71
     3
 72
     8
 73
     4
 74
     0
 42
0.000000001
 43
0.0000000001
 40
0.0
 40
0.0
 40
0.0
 40
0.0
 40
1.0
 40
1.0
 40
1.0
 40
1.0
 10
373.163894835741
 20
575.6609794173709
 30
0.0
 10
373.163894835741
 20
575.6808117109866
 30
0.0
 10
373.163894835741
 20
575.7495793462607
 30
0.0
 10
373.163894835741
 20
575.8678573922564
 30
0.0
  0
SPLINE
  5
14F
330
1F
100
AcDbEntity
  8
1
  6
Continuous
 62
    30
370
    18
100
AcDbSpline
210
0.0
220
0.0
230
1.0
 70
    24
 71
     3
 72
     8
 73
     4
 74
     0
 42
0.000000001
 43
0.0000000001
 40
0.0
 40
0.0
 40
0.0
 40
0.0
 40
1.0
 40
1.0
 40
1.0
 40
1.0
 10
387.163894835741
 20
578.7010278647284
 30
0.0
 10
387.163894835741
 20
578.7010988496679
 30
0.0
 10
387.163894835741
 20
578.6770277222652
 30
0.0
 10
387.163894835741
 20
578.6287221778032
 30
0.0
  0
SPLINE
  5
150
330
1F
100
AcDbEntity
  8
1
  6
Continuous
 62
    30
370
    18
100
AcDbSpline
210
0.0
220
0.0
230
1.0
 70
    24
 71
     3
 72
     8
 73
     4
 74
     0
 42
0.000000001
 43
0.0000000001
 40
0.0
 40
0.0
 40
0.0
 40
0.0
 40
1.0
 40
1.0
 40
1.0
 40
1.0
 10
387.163894835741
 20
578.6287221778032
 30
0.0
 10
387.163894835741
 20
578.5655404695143
 30
0.0
 10
387.163894835741
 20
578.4738993974801
 30
0.0
 10
387.163894835741
 20
578.3539301778031
 30
0.0
  0
SPLINE
  5
151
330
1F
100
AcDbEntity
  8
1
  6
Continuous
 62
    30
370
    18
100
AcDbSpline
210
0.0
220
0.0
230
1.0
 70
    24
 71
     3
 72
    10
 73
     6
 74
     0
 42
0.000000001
 43
0.0000000001
 40
0.0
 40
0.0
 40
0.0
 40
0.0
 40
0.5339768437968849
 40
0.5339768437968849
 40
1.0
 40
1.0
 40
1.0
 40
1.0
 10
373.163894835741
 20
578.3806091049878
 30
0.0
 10
373.163894835741
 20
578.492141842687
 30
0.0
 10
373.163894835741
 20
578.5762623411207
 30
0.0
 10
373.163894835741
 20
578.682739470689
 30
0.0
 10
373.163894835741
 20
578.7074504281977
 30
0.0
 10
373.163894835741
 20
578.7073423996719
 30
0.0
  0
SPLINE
  5
152
330
1F
100
AcDbEntity
  8
1
  6
Continuous
 62
    30
370
    18
100
AcDbSpline
210
0.0
220
0.0
230
1.0
 70
    24
 71
     3
 72
    10
 73
     6
 74
     0
 42
0.000000001
 43
0.0000000001
 40
0.0
 40
0.0
 40
0.0
 40
0.0
 40
0.3294987674609706
 40
0.3294987674609706
 40
1.0
 40
1.0
 40
1.0
 40
1.0
 10
373.163894835741
 20
575.8678573922564
 30
0.0
 10
373.163894835741
 20
575.9868489776891
 30
0.0
 10
373.163894835741
 20
576.1894094275249
 30
0.0
 10
373.163894835741
 20
577.0577869223598
 30
0.0
 10
373.163894835741
 20
577.6400351029557
 30
0.0
 10
373.163894835741
 20
578.2222832835517
 30
0.0
  0
SPLINE
  5
153
330
1F
100
AcDbEntity
  8
1
  6
Continuous
 62
    30
370
    18
100
AcDbSpline
210
0.0
220
0.0
230
1.0
 70
    24
 71
     3
 72
     8
 73
     4
 74
     0
 42
0.000000001
 43
0.0000000001
 40
0.0
 40
0.0
 40
0.0
 40
0.0
 40
1.0
 40
1.0
 40
1.0
 40
1.0
 10
373.163894835741
 20
578.2222832835517
 30
0.0
 10
373.163894835741
 20
578.2647425493907
 30
0.0
 10
373.163894835741
 20
578.3072018152297
 30
0.0
 10
373.163894835741
 20
578.3496610810687
 30
0.0
  0
SPLINE
  5
154
330
1F
100
AcDbEntity
  8
1
  6
Continuous
 62
    30
370
    18
100
AcDbSpline
210
0.0
220
0.0
230
1.0
 70
    24
 71
     3
 72
     8
 73
     4
 74
     0
 42
0.000000001
 43
0.0000000001
 40
0.0
 40
0.0
 40
0.0
 40
0.0
 40
1.0
 40
1.0
 40
1.0
 40
1.0
 10
387.163894835741
 20
578.2210335544456
 30
0.0
 10
387.163894835741
 20
577.2897521681161
 30
0.0
 10
387.163894835741
 20
576.3584707817868
 30
0.0
 10
387.163894835741
 20
575.4271893954574
 30
0.0
  0
SPLINE
  5
155
330
1F
100
AcDbEntity
  8
1
  6
Continuous
 62
    30
370
    18
100
AcDbSpline
210
0.0
220
0.0
230
1.0
 70
    24
 71
     3
 72
     8
 73
     4
 74
     0
 42
0.000000001
 43
0.0000000001
 40
0.0
 40
0.0
 40
0.0
 40
0.0
 40
1.0
 40
1.0
 40
1.0
 40
1.0
 10
387.163894835741
 20
578.3469980758549
 30
0.0
 10
387.163894835741
 20
578.3050099020518
 30
0.0
 10
387.163894835741
 20
578.2630217282488
 30
0.0
 10
387.163894835741
 20
578.2210335544456
 30
0.0
  0
SPLINE
  5
156
330
1F
100
AcDbEntity
  8
1
  6
Continuous
 62
    30
370
    18
100
AcDbSpline
210
0.0
220
0.0
230
1.0
 70
    24
 71
     3
 72
     8
 73
     4
 74
     0
 42
0.000000001
 43
0.0000000001
 40
0.0
 40
0.0
 40
0.0
 40
0.0
 40
1.0
 40
1.0
 40
1.0
 40
1.0
 10
373.663894835741
 20
562.9167405981447
 30
0.0
 10
373.663894835741
 20
563.9471506984747
 30
0.0
 10
373.663894835741
 20
564.9775608879372
 30
0.0
 10
373.663894835741
 20
566.007971165119
 30
0.0
  0
SPLINE
  5
157
330
1F
100
AcDbEntity
  8
1
  6
Continuous
 62
    30
370
    18
100
AcDbSpline
210
0.0
220
0.0
230
1.0
 70
     8
 71
     3
 72
    58
 73
    54
 74
     0
 42
0.000000001
 43
0.0000000001
 40
0.0
 40
0.0
 40
0.0
 40
0.0
 40
0.0624999999999998
 40
0.0624999999999998
 40
0.1249999999999996
 40
0.1249999999999996
 40
0.1874999999999994
 40
0.1874999999999994
 40
0.2499999999999993
 40
0.2499999999999993
 40
0.2656249999999992
 40
0.2656249999999992
 40
0.2812499999999991
 40
0.2812499999999991
 40
0.3124999999999987
 40
0.3124999999999987
 40
0.3749999999999983
 40
0.3749999999999983
 40
0.4374999999999978
 40
0.4374999999999978
 40
0.4687499999999977
 40
0.4687499999999977
 40
0.4999999999999975
 40
0.4999999999999975
 40
0.5624999999999977
 40
0.5624999999999977
 40
0.624999999999998
 40
0.624999999999998
 40
0.640624999999998
 40
0.648437499999998
 40
0.648437499999998
 40
0.656249999999998
 40
0.656249999999998
 40
0.6874999999999984
 40
0.6874999999999984
 40
0.75
 40
0.75
 40
0.7812500000000012
 40
0.7812500000000012
 40
0.7968750000000017
 40
0.8046875000000016
 40
0.8046875000000016
 40
0.8125000000000014
 40
0.8125000000000014
 40
0.8750000000000007
 40
0.8750000000000007
 40
0.9375
 40
0.9375
 40
0.96875
 40
0.96875
 40
0.9843750000000003
 40
0.9843750000000003
 40
1.0
 40
1.0
 40
1.0
 40
1.0
 10
367.163894835741
 20
556.4167405981447
 30
0.0
 10
367.2780862840162
 20
556.4167405981447
 30
0.0
 10
367.3976344462266
 20
556.4197373934347
 30
0.0
 10
367.6477308948533
 20
556.4335633280538
 30
0.0
 10
367.778278889496
 20
556.4443883007585
 30
0.0
 10
368.050757545458
 20
556.4760662110093
 30
0.0
 10
368.1926878777961
 20
556.4969127233197
 30
0.0
 10
368.4884195209377
 20
556.5513467042789
 30
0.0
 10
368.6422205606796
 20
556.5849238834459
 30
0.0
 10
368.8422684460439
 20
556.6370295068335
 30
0.0
 10
368.8826681434715
 20
556.6479596833323
 30
0.0
 10
368.964258387699
 20
556.670903030447
 30
0.0
 10
369.0054560536025
 20
556.6829195811422
 30
0.0
 10
369.129696555444
 20
556.7205230129217
 30
0.0
 10
369.2135621752247
 20
556.7477102892315
 30
0.0
 10
369.4681342273759
 20
556.8362171465507
 30
0.0
 10
369.6418246685035
 20
556.904456964862
 30
0.0
 10
369.9962354346661
 20
557.0630633372416
 30
0.0
 10
370.176961819189
 20
557.1534173928529
 30
0.0
 10
370.4523745082553
 20
557.3089764984959
 30
0.0
 10
370.5449222645419
 20
557.3641926168884
 30
0.0
 10
370.7311348292825
 20
557.481951330203
 30
0.0
 10
370.8238045399121
 20
557.5438669835844
 30
0.0
 10
371.0999854878431
 20
557.739093443178
 30
0.0
 10
371.2816829050349
 20
557.8818709094195
 30
0.0
 10
371.6371817080201
 20
558.1948981691389
 30
0.0
 10
371.8109917820404
 20
558.3651379252876
 30
0.0
 10
372.0210708575904
 20
558.5968154367255
 30
0.0
 10
372.0835531521325
 20
558.6677371740274
 30
0.0
 10
372.1451508519893
 20
558.7408440723383
 30
0.0
 10
372.1860109068853
 20
558.790074454439
 30
0.0
 10
372.2063332689959
 20
558.8149307034197
 30
0.0
 10
372.3069677938787
 20
558.9398980318161
 30
0.0
 10
372.3847102470301
 20
559.0424978436654
 30
0.0
 10
372.6093124077667
 20
559.3580737994923
 30
0.0
 10
372.7475651409459
 20
559.5788059655785
 30
0.0
 10
372.9361475280724
 20
559.9253539166872
 30
0.0
 10
372.9958715300489
 20
560.0434496673452
 30
0.0
 10
373.0805073395457
 20
560.2245045918086
 30
0.0
 10
373.1215870931437
 20
560.3160104675242
 30
0.0
 10
373.1607574409816
 20
560.4089976241918
 30
0.0
 10
373.1864403961247
 20
560.4713202042971
 30
0.0
 10
373.1990770572916
 20
560.5026737973473
 30
0.0
 10
373.3106089754138
 20
560.7857654431368
 30
0.0
 10
373.3934952182883
 20
561.0420452893661
 30
0.0
 10
373.527127569867
 20
561.5633476033582
 30
0.0
 10
373.5778785537993
 20
561.8283699130824
 30
0.0
 10
373.6292001970212
 20
562.2324445684138
 30
0.0
 10
373.6421627410747
 20
562.3682303612335
 30
0.0
 10
373.6551929481873
 20
562.5735883743881
 30
0.0
 10
373.6584563128298
 20
562.6421823886561
 30
0.0
 10
373.6628058918499
 20
562.7793867672221
 30
0.0
 10
373.663894835741
 20
562.8480387601257
 30
0.0
 10
373.663894835741
 20
562.9167405981447
 30
0.0
  0
SPLINE
  5
158
330
1F
100
AcDbEntity
  8
1
  6
Continuous
 62
    30
370
    13
100
AcDbSpline
210
0.0
220
0.0
230
1.0
 70
     8
 71
     3
 72
     8
 73
     4
 74
     0
 42
0.000000001
 43
0.0000000001
 40
0.0
 40
0.0
 40
0.0
 40
0.0
 40
1.0
 40
1.0
 40
1.0
 40
1.0
 10
376.007644835741
 20
565.9313268964268
 30
0.0
 10
376.0065643935691
 20
564.9009165642875
 30
0.0
 10
376.0054786151966
 20
563.8705063744211
 30
0.0
 10
376.0043874207706
 20
562.8400963294523
 30
0.0
  0
SPLINE
  5
159
330
1F
100
AcDbEntity
  8
1
  6
Continuous
 62
    30
370
    13
100
AcDbSpline
210
0.0
220
0.0
230
1.0
 70
     8
 71
     3
 72
    66
 73
    62
 74
     0
 42
0.000000001
 43
0.0000000001
 40
0.0
 40
0.0
 40
0.0
 40
0.0
 40
0.0156249999999993
 40
0.0234374999999988
 40
0.0234374999999988
 40
0.0312499999999982
 40
0.0312499999999982
 40
0.0624999999999963
 40
0.0624999999999963
 40
0.0937499999999945
 40
0.1249999999999926
 40
0.1249999999999926
 40
0.187499999999989
 40
0.187499999999989
 40
0.1953124999999887
 40
0.1953124999999887
 40
0.2031249999999885
 40
0.2187499999999884
 40
0.2187499999999884
 40
0.2499999999999883
 40
0.2499999999999883
 40
0.3124999999999877
 40
0.3124999999999877
 40
0.3437499999999872
 40
0.3437499999999872
 40
0.3515624999999875
 40
0.3515624999999875
 40
0.3593749999999876
 40
0.3593749999999876
 40
0.3749999999999882
 40
0.3749999999999882
 40
0.4374999999999903
 40
0.4374999999999903
 40
0.4999999999999925
 40
0.4999999999999925
 40
0.5312499999999936
 40
0.5312499999999936
 40
0.5468749999999939
 40
0.5468749999999939
 40
0.5546874999999939
 40
0.5546874999999939
 40
0.5624999999999939
 40
0.5624999999999939
 40
0.6249999999999948
 40
0.6249999999999948
 40
0.6874999999999954
 40
0.6874999999999954
 40
0.7187499999999958
 40
0.7187499999999958
 40
0.734374999999996
 40
0.7421874999999961
 40
0.7421874999999961
 40
0.7499999999999962
 40
0.7499999999999962
 40
0.8124999999999971
 40
0.8124999999999971
 40
0.8749999999999981
 40
0.8749999999999981
 40
0.937499999999999
 40
0.937499999999999
 40
1.0
 40
1.0
 40
1.0
 40
1.0
 10
376.0043874207706
 20
562.8400963294523
 30
0.0
 10
376.0042810725528
 20
562.7396721802675
 30
0.0
 10
376.0012836898504
 20
562.5891620544216
 30
0.0
 10
375.9940433889537
 20
562.4388406531974
 30
0.0
 10
375.9882738606982
 20
562.3386683662746
 30
0.0
 10
375.9849152398593
 20
562.2885706783201
 30
0.0
 10
375.9657970298323
 20
562.0385902330547
 30
0.0
 10
375.9431199071691
 20
561.8407227635117
 30
0.0
 10
375.8836457634228
 20
561.449052945609
 30
0.0
 10
375.8100500366261
 20
561.0614487704979
 30
0.0
 10
375.7091121404917
 20
560.6817676827468
 30
0.0
 10
375.5376332726594
 20
560.1181140537348
 30
0.0
 10
375.3966161357502
 20
559.7501455736964
 30
0.0
 10
375.2082964629963
 20
559.3450650925321
 30
0.0
 10
375.1869437357762
 20
559.3001515114885
 30
0.0
 10
375.1436003612105
 20
559.2109567972169
 30
0.0
 10
375.0775684434236
 20
559.0779807000944
 30
0.0
 10
375.0085441092762
 20
558.9474172267329
 30
0.0
 10
374.866646063802
 20
558.6894247692377
 30
0.0
 10
374.7669187971335
 20
558.521605855227
 30
0.0
 10
374.4533133297469
 20
558.0301512603696
 30
0.0
 10
374.225053221514
 20
557.7184807383933
 30
0.0
 10
373.8567613383503
 20
557.2736385213485
 30
0.0
 10
373.7296688344962
 20
557.1291450913277
 30
0.0
 10
373.5656207584353
 20
556.9531941264241
 30
0.0
 10
373.5325518674439
 20
556.9182373733397
 30
0.0
 10
373.4659006524982
 20
556.8487896186201
 30
0.0
 10
373.4322887728222
 20
556.8142688591043
 30
0.0
 10
373.3309192860091
 20
556.7116346466593
 30
0.0
 10
373.2627050125717
 20
556.6445227620098
 30
0.0
 10
372.9186634570693
 20
556.3153008832645
 30
0.0
 10
372.6339706569931
 20
556.0721375521658
 30
0.0
 10
372.0500432736747
 20
555.6218675644628
 30
0.0
 10
371.7507926140808
 20
555.4147817195842
 30
0.0
 10
371.2936306843302
 20
555.128917609798
 30
0.0
 10
371.1398572577118
 20
555.0377651375057
 30
0.0
 10
370.9074126681212
 20
554.907011877784
 30
0.0
 10
370.829633535442
 20
554.8644237229549
 30
0.0
 10
370.7125537837438
 20
554.80201032131
 30
0.0
 10
370.6734759861815
 20
554.7814603471253
 30
0.0
 10
370.595413898577
 20
554.7409598354516
 30
0.0
 10
370.5564029646667
 20
554.7209950212849
 30
0.0
 10
370.2055081606961
 20
554.5438299904908
 30
0.0
 10
369.8950679508271
 20
554.4042024783248
 30
0.0
 10
369.2794165085084
 20
554.1557015351244
 30
0.0
 10
368.974198371244
 20
554.0468439446661
 30
0.0
 10
368.5217689172125
 20
553.9037100643648
 30
0.0
 10
368.3718569219726
 20
553.8593641008181
 30
0.0
 10
368.1485100048723
 20
553.7975750392568
 30
0.0
 10
368.0372167338437
 20
553.7678634088473
 30
0.0
 10
367.9265258875986
 20
553.7398699819432
 30
0.0
 10
367.8528694110938
 20
553.7215834937583
 30
0.0
 10
367.8160894865474
 20
553.7126233280126
 30
0.0
 10
367.4862659136045
 20
553.6337789812557
 30
0.0
 10
367.2015062707848
 20
553.5763952808147
 30
0.0
 10
366.6491100887857
 20
553.482463698462
 30
0.0
 10
366.3814721219454
 20
553.4459275260939
 30
0.0
 10
365.8636957933322
 20
553.3899643197506
 30
0.0
 10
365.6135562263582
 20
553.3705449901234
 30
0.0
 10
365.131282474567
 20
553.3456083149697
 30
0.0
 10
364.8991470314148
 20
553.3400963294523
 30
0.0
 10
364.6763497845805
 20
553.3400963294523
 30
0.0
  0
SPLINE
  5
15A
330
1F
100
AcDbEntity
  8
1
  6
Continuous
 62
    30
370
    18
100
AcDbSpline
210
0.0
220
0.0
230
1.0
 70
    24
 71
     3
 72
     8
 73
     4
 74
     0
 42
0.000000001
 43
0.0000000001
 40
0.0
 40
0.0
 40
0.0
 40
0.0
 40
1.0
 40
1.0
 40
1.0
 40
1.0
 10
386.663894835741
 20
566.007971165119
 30
0.0
 10
386.663894835741
 20
564.9775608879372
 30
0.0
 10
386.663894835741
 20
563.9471506984747
 30
0.0
 10
386.663894835741
 20
562.9167405981447
 30
0.0
  0
SPLINE
  5
15B
330
1F
100
AcDbEntity
  8
1
  6
Continuous
 62
    30
370
    18
100
AcDbSpline
210
0.0
220
0.0
230
1.0
 70
     8
 71
     3
 72
    56
 73
    52
 74
     0
 42
0.000000001
 43
0.0000000001
 40
0.0
 40
0.0
 40
0.0
 40
0.0
 40
0.0624999999999976
 40
0.0624999999999976
 40
0.1249999999999951
 40
0.1249999999999951
 40
0.1562499999999943
 40
0.1562499999999943
 40
0.1718749999999939
 40
0.1718749999999939
 40
0.1874999999999935
 40
0.1874999999999935
 40
0.249999999999992
 40
0.249999999999992
 40
0.3124999999999904
 40
0.3124999999999904
 40
0.3281249999999902
 40
0.3281249999999902
 40
0.34374999999999
 40
0.34374999999999
 40
0.3749999999999901
 40
0.3749999999999901
 40
0.4374999999999907
 40
0.4374999999999907
 40
0.4687499999999909
 40
0.4843749999999912
 40
0.4843749999999912
 40
0.4999999999999915
 40
0.4999999999999915
 40
0.5624999999999929
 40
0.5624999999999929
 40
0.6249999999999943
 40
0.6249999999999943
 40
0.6562499999999949
 40
0.6562499999999949
 40
0.6718749999999951
 40
0.6718749999999951
 40
0.6874999999999954
 40
0.6874999999999954
 40
0.7499999999999971
 40
0.7499999999999971
 40
0.8124999999999988
 40
0.8124999999999988
 40
0.8750000000000004
 40
0.8750000000000004
 40
0.8906250000000004
 40
0.8906250000000004
 40
0.9062500000000006
 40
0.9375000000000006
 40
0.9375000000000006
 40
1.0
 40
1.0
 40
1.0
 40
1.0
 10
386.663894835741
 20
562.9167405981447
 30
0.0
 10
386.663894835741
 20
562.6423402085958
 30
0.0
 10
386.6811982453644
 20
562.3713235680074
 30
0.0
 10
386.7487241997506
 20
561.835805571989
 30
0.0
 10
386.7989563733346
 20
561.5713059560807
 30
0.0
 10
386.8988774500278
 20
561.1795831043398
 30
0.0
 10
386.9362907842602
 20
561.0498497940476
 30
0.0
 10
386.9986509230784
 20
560.8565583558449
 30
0.0
 10
387.0205097913745
 20
560.7922693170682
 30
0.0
 10
387.0659626530361
 20
560.6651231522634
 30
0.0
 10
387.0895901195426
 20
560.6021535862875
 30
0.0
 10
387.2121197765596
 20
560.2902930399553
 30
0.0
 10
387.3241632355198
 20
560.0503322725734
 30
0.0
 10
387.5740397680997
 20
559.5892367026863
 30
0.0
 10
387.7118843671051
 20
559.368107531558
 30
0.0
 10
387.8993534089082
 20
559.103762170508
 30
0.0
 10
387.937606650388
 20
559.051497909419
 30
0.0
 10
388.0156123262058
 20
558.9481921933597
 30
0.0
 10
388.0551831338894
 20
558.897394004003
 30
0.0
 10
388.1751789329946
 20
558.7479226808478
 30
0.0
 10
388.2570226565293
 20
558.6519894920087
 30
0.0
 10
388.5073602582495
 20
558.3748608055627
 30
0.0
 10
388.6806447332832
 20
558.2043211177283
 30
0.0
 10
388.9475984449303
 20
557.9683113569627
 30
0.0
 10
389.082838690469
 20
557.8552628672852
 30
0.0
 10
389.2202921830497
 20
557.749409765037
 30
0.0
 10
389.3123742113401
 20
557.680415674984
 30
0.0
 10
389.3586587347
 20
557.6466913740702
 30
0.0
 10
389.5908730499743
 20
557.4820957100429
 30
0.0
 10
389.7756386585813
 20
557.3657208191214
 30
0.0
 10
390.1410139459061
 20
557.1585905796892
 30
0.0
 10
390.32163245975
 20
557.0678496583247
 30
0.0
 10
390.5882718644747
 20
556.9480169933984
 30
0.0
 10
390.6764405059213
 20
556.9107926432154
 30
0.0
 10
390.8075052251335
 20
556.8587179856838
 30
0.0
 10
390.8509955798759
 20
556.8419870564584
 30
0.0
 10
390.9375619590676
 20
556.8097302426389
 30
0.0
 10
390.9806489248841
 20
556.7942018557202
 30
0.0
 10
391.1940591718552
 20
556.7197702727779
 30
0.0
 10
391.3590895745988
 20
556.670154282454
 30
0.0
 10
391.6779761002297
 20
556.5867162584224
 30
0.0
 10
391.8318336109961
 20
556.5529064898576
 30
0.0
 10
392.1285928143564
 20
556.4979462106617
 30
0.0
 10
392.2714951698148
 20
556.4768033441973
 30
0.0
 10
392.4433892826083
 20
556.4567042352197
 30
0.0
 10
392.477443268703
 20
556.4530010421482
 30
0.0
 10
392.5447709812518
 20
556.4462050365049
 30
0.0
 10
392.6446243889498
 20
556.4369226767402
 30
0.0
 10
392.7411100748386
 20
556.4301993717316
 30
0.0
 10
392.9297020595411
 20
556.4197405298357
 30
0.0
 10
393.0495949673814
 20
556.4167405981447
 30
0.0
 10
393.163894835741
 20
556.4167405981447
 30
0.0
  0
SPLINE
  5
15C
330
1F
100
AcDbEntity
  8
1
  6
Continuous
 62
    30
370
    13
100
AcDbSpline
210
0.0
220
0.0
230
1.0
 70
     8
 71
     3
 72
    60
 73
    56
 74
     0
 42
0.000000001
 43
0.0000000001
 40
0.0
 40
0.0
 40
0.0
 40
0.0
 40
0.0625000000000005
 40
0.0625000000000005
 40
0.0937500000000007
 40
0.0937500000000007
 40
0.1093750000000009
 40
0.1093750000000009
 40
0.1250000000000011
 40
0.1250000000000011
 40
0.1875000000000014
 40
0.1875000000000014
 40
0.2500000000000016
 40
0.2500000000000016
 40
0.2812500000000018
 40
0.2812500000000018
 40
0.296875000000002
 40
0.296875000000002
 40
0.3125000000000022
 40
0.3125000000000022
 40
0.3750000000000039
 40
0.3750000000000039
 40
0.4375000000000053
 40
0.4375000000000053
 40
0.468750000000006
 40
0.468750000000006
 40
0.4843750000000061
 40
0.4843750000000061
 40
0.5000000000000062
 40
0.5000000000000062
 40
0.5625000000000062
 40
0.5625000000000062
 40
0.6250000000000062
 40
0.6250000000000062
 40
0.6562500000000059
 40
0.6562500000000059
 40
0.6718750000000059
 40
0.6718750000000059
 40
0.6875000000000059
 40
0.6875000000000059
 40
0.7500000000000062
 40
0.7500000000000062
 40
0.8125000000000066
 40
0.8125000000000066
 40
0.8281250000000063
 40
0.8281250000000063
 40
0.835937500000006
 40
0.835937500000006
 40
0.8437500000000056
 40
0.8750000000000044
 40
0.9062500000000034
 40
0.9375000000000023
 40
0.9687500000000012
 40
0.9687500000000012
 40
1.0
 40
1.0
 40
1.0
 40
1.0
 10
395.6514398869016
 20
553.3400963294523
 30
0.0
 10
395.4286069300583
 20
553.3400963294523
 30
0.0
 10
395.1957591948343
 20
553.3456047217963
 30
0.0
 10
394.8316548872858
 20
553.3644949843103
 30
0.0
 10
394.7078129888009
 20
553.3725658878128
 30
0.0
 10
394.5183485197037
 20
553.3876611789893
 30
0.0
 10
394.4545439291751
 20
553.3931945073367
 30
0.0
 10
394.3258617715563
 20
553.4053006045259
 30
0.0
 10
394.2610184996307
 20
553.4118696450336
 30
0.0
 10
393.9343281348437
 20
553.4474159046557
 30
0.0
 10
393.6650622941143
 20
553.4844788384091
 30
0.0
 10
393.111589621359
 20
553.5792100313215
 30
0.0
 10
392.8273805570679
 20
553.6368695348441
 30
0.0
 10
392.3904871627
 20
553.7417538371471
 30
0.0
 10
392.2430925614539
 20
553.7797864429946
 30
0.0
 10
392.0194352446279
 20
553.8418710801122
 30
0.0
 10
391.9444552588083
 20
553.8634057257264
 30
0.0
 10
391.7936538972556
 20
553.908232426213
 30
0.0
 10
391.717811073303
 20
553.9315332070879
 30
0.0
 10
391.3381478053364
 20
554.0521039986094
 30
0.0
 10
391.0317292911695
 20
554.1619093063007
 30
0.0
 10
390.4157306961104
 20
554.4115997000453
 30
0.0
 10
390.1061440370525
 20
554.5514722425028
 30
0.0
 10
389.6412506096084
 20
554.7869705419905
 30
0.0
 10
389.4862032809521
 20
554.8697589844815
 30
0.0
 10
389.2537747509062
 20
555.0008534327051
 30
0.0
 10
389.1763225972263
 20
555.0457042318569
 30
0.0
 10
389.0215146330012
 20
555.1378000964245
 30
0.0
 10
388.9444583358394
 20
555.1848677797029
 30
0.0
 10
388.5613116545819
 20
555.4252189191436
 30
0.0
 10
388.2613161991526
 20
555.6336795132842
 30
0.0
 10
387.677765325127
 20
556.085423182178
 30
0.0
 10
387.3941954627057
 20
556.3286896178502
 30
0.0
 10
386.9842582043174
 20
556.7223498200043
 30
0.0
 10
386.8501890866037
 20
556.8583732098905
 30
0.0
 10
386.6534237769662
 20
557.0700621224495
 30
0.0
 10
386.5884852754274
 20
557.1419931765415
 30
0.0
 10
386.4610747711782
 20
557.287405428817
 30
0.0
 10
386.3984944234791
 20
557.3609981062965
 30
0.0
 10
386.0913106935248
 20
557.7334096486784
 30
0.0
 10
385.8638109778204
 20
558.0455312126795
 30
0.0
 10
385.4484432073626
 20
558.69918720707
 30
0.0
 10
385.260549802129
 20
559.0407055655552
 30
0.0
 10
385.0534265748287
 20
559.4874252753556
 30
0.0
 10
385.0133943741168
 20
559.5777642612067
 30
0.0
 10
384.9555088095402
 20
559.7148058137273
 30
0.0
 10
384.9365636057399
 20
559.7607682501151
 30
0.0
 10
384.8994534426627
 20
559.8530978547278
 30
0.0
 10
384.8088417469919
 20
560.0844005271181
 30
0.0
 10
384.6651358382338
 20
560.5050205603329
 30
0.0
 10
384.5147402819352
 20
561.0748268576672
 30
0.0
 10
384.4058281768198
 20
561.6535886695474
 30
0.0
 10
384.3613594564235
 20
562.0454636333834
 30
0.0
 10
384.3313703099203
 20
562.440430293364
 30
0.0
 10
384.3236147234348
 20
562.639459281391
 30
0.0
 10
384.3234022507114
 20
562.8400963294523
 30
0.0
  0
SPLINE
  5
15D
330
1F
100
AcDbEntity
  8
1
  6
Continuous
 62
    30
370
    13
100
AcDbSpline
210
0.0
220
0.0
230
1.0
 70
     8
 71
     3
 72
     8
 73
     4
 74
     0
 42
0.000000001
 43
0.0000000001
 40
0.0
 40
0.0
 40
0.0
 40
0.0
 40
1.0
 40
1.0
 40
1.0
 40
1.0
 10
384.3234022507114
 20
562.8400963294523
 30
0.0
 10
384.3223110562853
 20
563.8705063744211
 30
0.0
 10
384.3212252779128
 20
564.9009165642875
 30
0.0
 10
384.320144835741
 20
565.9313268964268
 30
0.0
  0
SPLINE
  5
15E
330
1F
100
AcDbEntity
  8
1
  6
Continuous
 62
    30
370
    13
100
AcDbSpline
210
0.0
220
0.0
230
1.0
 70
     8
 71
     3
 72
     8
 73
     4
 74
     0
 42
0.000000001
 43
0.0000000001
 40
0.0
 40
0.0
 40
0.0
 40
0.0
 40
1.0
 40
1.0
 40
1.0
 40
1.0
 10
795.9407678161895
 20
566.007971165119
 30
0.0
 10
795.9677554736468
 20
564.9775608879372
 30
0.0
 10
795.9947464805131
 20
563.9471506984747
 30
0.0
 10
796.0217408894645
 20
562.9167405981447
 30
0.0
  0
SPLINE
  5
15F
330
1F
100
AcDbEntity
  8
1
  6
Continuous
 62
    30
370
    13
100
AcDbSpline
210
0.0
220
0.0
230
1.0
 70
     8
 71
     3
 72
     8
 73
     4
 74
     0
 42
0.000000001
 43
0.0000000001
 40
0.0
 40
0.0
 40
0.0
 40
0.0
 40
1.0
 40
1.0
 40
1.0
 40
1.0
 10
827.0740804179462
 20
562.9167405981447
 30
0.0
 10
827.1010748268976
 20
563.9471506984747
 30
0.0
 10
827.1280658337638
 20
564.9775608879372
 30
0.0
 10
827.1550534912212
 20
566.007971165119
 30
0.0
  0
SPLINE
  5
160
330
1F
100
AcDbEntity
  8
1
  6
Continuous
 62
    30
370
    18
100
AcDbSpline
210
0.0
220
0.0
230
1.0
 70
     8
 71
     3
 72
    68
 73
    64
 74
     0
 42
0.000000001
 43
0.0000000001
 40
0.0
 40
0.0
 40
0.0
 40
0.0
 40
0.0312499999999994
 40
0.0312499999999994
 40
0.0624999999999988
 40
0.0624999999999988
 40
0.0937499999999982
 40
0.0937499999999982
 40
0.1093749999999981
 40
0.1093749999999981
 40
0.1171874999999984
 40
0.1171874999999984
 40
0.1249999999999988
 40
0.1328124999999991
 40
0.1328124999999991
 40
0.1406249999999994
 40
0.1406249999999994
 40
0.1562499999999999
 40
0.1562499999999999
 40
0.1875000000000003
 40
0.1875000000000003
 40
0.2187500000000007
 40
0.2187500000000007
 40
0.2500000000000011
 40
0.2500000000000011
 40
0.2812500000000014
 40
0.2812500000000014
 40
0.3125000000000018
 40
0.3125000000000018
 40
0.3750000000000026
 40
0.3750000000000026
 40
0.4375000000000033
 40
0.4375000000000033
 40
0.500000000000004
 40
0.500000000000004
 40
0.515625000000004
 40
0.515625000000004
 40
0.531250000000004
 40
0.562500000000004
 40
0.562500000000004
 40
0.6250000000000037
 40
0.6250000000000037
 40
0.6875000000000033
 40
0.6875000000000033
 40
0.750000000000003
 40
0.750000000000003
 40
0.8125000000000027
 40
0.8125000000000027
 40
0.8281250000000026
 40
0.8281250000000026
 40
0.8437500000000024
 40
0.8437500000000024
 40
0.8750000000000021
 40
0.8750000000000021
 40
0.9375000000000011
 40
0.9375000000000011
 40
0.9687500000000006
 40
0.9843750000000003
 40
0.9921875000000001
 40
0.9960937500000001
 40
0.998046875
 40
0.998046875
 40
1.0
 40
1.0
 40
1.0
 40
1.0
 10
803.1774420406878
 20
563.4384797285794
 30
0.0
 10
803.2062051017073
 20
563.2756124671678
 30
0.0
 10
803.2394182365282
 20
563.115264015966
 30
0.0
 10
803.314279500447
 20
562.7992699007034
 30
0.0
 10
803.355928568404
 20
562.6436249762455
 30
0.0
 10
803.447325187487
 20
562.3367909434204
 30
0.0
 10
803.4970733483464
 20
562.1856023184363
 30
0.0
 10
803.5775944177173
 20
561.9620268212439
 30
0.0
 10
803.6054186642954
 20
561.8880367156871
 30
0.0
 10
803.6486152516537
 20
561.7778413159934
 30
0.0
 10
803.6632647381394
 20
561.7412245141857
 30
0.0
 10
803.6929568620965
 20
561.6684726681516
 30
0.0
 10
803.7230615709526
 20
561.5961515345762
 30
0.0
 10
803.7539775486035
 20
561.5246742038198
 30
0.0
 10
803.7852926751106
 20
561.4536105415763
 30
0.0
 10
803.8011611876492
 20
561.4182609664381
 30
0.0
 10
803.8492531669416
 20
561.3130451344955
 30
0.0
 10
803.8819632117861
 20
561.2440053178799
 30
0.0
 10
803.9819428680075
 20
561.0400061539943
 30
0.0
 10
804.0510586460663
 20
560.9081604078102
 30
0.0
 10
804.1937952285567
 20
560.651943829203
 30
0.0
 10
804.2674170308109
 20
560.5275750742817
 30
0.0
 10
804.4188437195683
 20
560.2856752738951
 30
0.0
 10
804.4966492640061
 20
560.1681455895135
 30
0.0
 10
804.656192688673
 20
559.9394255355522
 30
0.0
 10
804.7379447802267
 20
559.8282182799112
 30
0.0
 10
804.9051301604319
 20
559.6118219466204
 30
0.0
 10
804.989848285146
 20
559.5075522614205
 30
0.0
 10
805.2471085675115
 20
559.2053576623863
 30
0.0
 10
805.4227433350832
 20
559.0179909563657
 30
0.0
 10
805.7812546135601
 20
558.6670525953591
 30
0.0
 10
805.9641369617848
 20
558.503507370982
 30
0.0
 10
806.3365096007702
 20
558.1974111573422
 30
0.0
 10
806.5260028785187
 20
558.0548736807857
 30
0.0
 10
806.7667500158863
 20
557.8886593229141
 30
0.0
 10
806.8151343990452
 20
557.8559898402517
 30
0.0
 10
806.9120495674003
 20
557.7919834563016
 30
0.0
 10
807.0576351338939
 20
557.697973257586
 30
0.0
 10
807.2038508776865
 20
557.6097660009564
 30
0.0
 10
807.4971053510575
 20
557.4406514596737
 30
0.0
 10
807.6937043351276
 20
557.3376220317359
 30
0.0
 10
808.0890379442549
 20
557.1492349386897
 30
0.0
 10
808.2877727938501
 20
557.0638835269482
 30
0.0
 10
808.6873618895743
 20
556.9096734812829
 30
0.0
 10
808.8882162245687
 20
556.840818452067
 30
0.0
 10
809.2920628394273
 20
556.7188357679636
 30
0.0
 10
809.495055105199
 20
556.6657101152516
 30
0.0
 10
809.7501643525916
 20
556.6088623652489
 30
0.0
 10
809.8012547321061
 20
556.597971528272
 30
0.0
 10
809.9035737114597
 20
556.5771433796518
 30
0.0
 10
809.9548196417088
 20
556.5672029231546
 30
0.0
 10
810.1086385646003
 20
556.5388309968268
 30
0.0
 10
810.2112236176098
 20
556.5218595669802
 30
0.0
 10
810.5191143068573
 20
556.476680342661
 30
0.0
 10
810.7245553677413
 20
556.4541989591642
 30
0.0
 10
811.0330611184263
 20
556.4317207875829
 30
0.0
 10
811.1874000591407
 20
556.4232959862387
 30
0.0
 10
811.3676293928843
 20
556.4183793743432
 30
0.0
 10
811.4577880203753
 20
556.4171500408914
 30
0.0
 10
811.5028785967202
 20
556.4168427972811
 30
0.0
 10
811.5222055723085
 20
556.4167770243359
 30
0.0
 10
811.53509076885
 20
556.4167478241573
 30
0.0
 10
811.5415020451155
 20
556.4167405981447
 30
0.0
 10
811.5479106537053
 20
556.4167405981447
 30
0.0
  0
SPLINE
  5
161
330
1F
100
AcDbEntity
  8
1
  6
Continuous
 62
    30
370
    13
100
AcDbSpline
210
0.0
220
0.0
230
1.0
 70
     8
 71
     3
 72
    67
 73
    63
 74
     0
 42
0.000000001
 43
0.0000000001
 40
0.0
 40
0.0
 40
0.0
 40
0.0
 40
0.0019531249999999
 40
0.0019531249999999
 40
0.0039062499999998
 40
0.0078124999999999
 40
0.0156249999999998
 40
0.0312499999999998
 40
0.0624999999999998
 40
0.0624999999999998
 40
0.1249999999999997
 40
0.1249999999999997
 40
0.1562499999999996
 40
0.1562499999999996
 40
0.1718749999999994
 40
0.1718749999999994
 40
0.1874999999999994
 40
0.1874999999999994
 40
0.25
 40
0.25
 40
0.3125000000000004
 40
0.3125000000000004
 40
0.375000000000001
 40
0.375000000000001
 40
0.4375000000000016
 40
0.4375000000000016
 40
0.4687500000000018
 40
0.4843750000000018
 40
0.4843750000000018
 40
0.5000000000000018
 40
0.5000000000000018
 40
0.5625000000000014
 40
0.5625000000000014
 40
0.6250000000000011
 40
0.6250000000000011
 40
0.6875000000000009
 40
0.6875000000000009
 40
0.7187500000000006
 40
0.7187500000000006
 40
0.7343750000000007
 40
0.7343750000000007
 40
0.7500000000000007
 40
0.7500000000000007
 40
0.7812500000000004
 40
0.7812500000000004
 40
0.8125000000000001
 40
0.8125000000000001
 40
0.8437499999999998
 40
0.8437499999999998
 40
0.8593749999999997
 40
0.8593749999999997
 40
0.8749999999999996
 40
0.8749999999999996
 40
0.8906249999999993
 40
0.8906249999999993
 40
0.9062499999999992
 40
0.9062499999999992
 40
0.9374999999999994
 40
0.9374999999999994
 40
0.9687499999999998
 40
0.9687499999999998
 40
1.0
 40
1.0
 40
1.0
 40
1.0
 10
811.5479106537053
 20
556.4167405981447
 30
0.0
 10
811.539344875911
 20
556.4167405981447
 30
0.0
 10
811.5307869409132
 20
556.4167471081876
 30
0.0
 10
811.513537748419
 20
556.4167735329129
 30
0.0
 10
811.4876648827994
 20
556.4168330838393
 30
0.0
 10
811.4273013034748
 20
556.417111406272
 30
0.0
 10
811.3065997368321
 20
556.4182253488523
 30
0.0
 10
811.0652976335551
 20
556.4226814073055
 30
0.0
 10
810.8586359527043
 20
556.4303186872859
 30
0.0
 10
810.4455262846113
 20
556.4506974125081
 30
0.0
 10
810.1704045742091
 20
556.4710814255927
 30
0.0
 10
809.7581084010483
 20
556.5120394064442
 30
0.0
 10
809.6207407941661
 20
556.5274241994894
 30
0.0
 10
809.4147813508783
 20
556.5531398082779
 30
0.0
 10
809.3461455866125
 20
556.5621516615649
 30
0.0
 10
809.2090833274318
 20
556.5810369940823
 30
0.0
 10
809.1406344777093
 20
556.5909131762155
 30
0.0
 10
808.7988008753267
 20
556.6424714619061
 30
0.0
 10
808.5266463817371
 20
556.6906755794049
 30
0.0
 10
807.9849695814567
 20
556.8014074009363
 30
0.0
 10
807.7154471296415
 20
556.8639334173736
 30
0.0
 10
807.179086559559
 20
557.0039986718424
 30
0.0
 10
806.9122481299205
 20
557.0815349622746
 30
0.0
 10
806.3813591822621
 20
557.252660763687
 30
0.0
 10
806.1173081007368
 20
557.3462452792976
 30
0.0
 10
805.7234482093406
 20
557.4997913521413
 30
0.0
 10
805.5270732744685
 20
557.5798628470702
 30
0.0
 10
805.3315633770883
 20
557.665161868119
 30
0.0
 10
805.2014200151273
 20
557.7232262905336
 30
0.0
 10
805.1364022560283
 20
557.75287854852
 30
0.0
 10
804.8125639820676
 20
557.9038797948676
 30
0.0
 10
804.5572772522563
 20
558.0334989081375
 30
0.0
 10
804.0549046471749
 20
558.3121402209075
 30
0.0
 10
803.8078145625395
 20
558.4611506788266
 30
0.0
 10
803.3227803673241
 20
558.7811680290775
 30
0.0
 10
803.0848282216666
 20
558.9521524481258
 30
0.0
 10
802.735836512056
 20
559.2280658526993
 30
0.0
 10
802.6208332072752
 20
559.3232887002503
 30
0.0
 10
802.450509724569
 20
559.4715212953811
 30
0.0
 10
802.3940846376386
 20
559.5218503934865
 30
0.0
 10
802.2825608872506
 20
559.6238867094826
 30
0.0
 10
802.227392558399
 20
559.6756532689933
 30
0.0
 10
802.0637281112821
 20
559.8332810406235
 30
0.0
 10
801.957069680952
 20
559.9414664097068
 30
0.0
 10
801.7490358070795
 20
560.1645637048694
 30
0.0
 10
801.6476593606537
 20
560.2794742078185
 30
0.0
 10
801.4506715595096
 20
560.5166884844107
 30
0.0
 10
801.3550586785113
 20
560.6389900832775
 30
0.0
 10
801.2164296828266
 20
560.828633795818
 30
0.0
 10
801.171019637329
 20
560.8928819746121
 30
0.0
 10
801.081894517891
 20
561.0235785111141
 30
0.0
 10
801.038151513224
 20
561.0900762146163
 30
0.0
 10
800.9528549252556
 20
561.2247968539575
 30
0.0
 10
800.9112359621233
 20
561.2931252164813
 30
0.0
 10
800.8306266385773
 20
561.4309625521258
 30
0.0
 10
800.791579811644
 20
561.5005571112634
 30
0.0
 10
800.6783115392537
 20
561.7114264730491
 30
0.0
 10
800.6079566056407
 20
561.8547836486001
 30
0.0
 10
800.4782110532568
 20
562.1474340004725
 30
0.0
 10
800.418818579182
 20
562.2967260492659
 30
0.0
 10
800.3118490838102
 20
562.6017444754978
 30
0.0
 10
800.2642692030183
 20
562.7574691034888
 30
0.0
 10
800.2231590007992
 20
562.9167405981447
 30
0.0
  0
SPLINE
  5
162
330
1F
100
AcDbEntity
  8
1
  6
Continuous
 62
    30
370
    18
100
AcDbSpline
210
0.0
220
0.0
230
1.0
 70
     8
 71
     3
 72
    68
 73
    64
 74
     0
 42
0.000000001
 43
0.0000000001
 40
0.0
 40
0.0
 40
0.0
 40
0.0
 40
0.0019531249999999
 40
0.0019531249999999
 40
0.0039062499999999
 40
0.0078124999999999
 40
0.0156249999999999
 40
0.0312499999999999
 40
0.0625000000000001
 40
0.0625000000000001
 40
0.1250000000000003
 40
0.1250000000000003
 40
0.1562500000000003
 40
0.1562500000000003
 40
0.1718750000000004
 40
0.1718750000000004
 40
0.1875000000000006
 40
0.1875000000000006
 40
0.2500000000000006
 40
0.2500000000000006
 40
0.3125000000000006
 40
0.3125000000000006
 40
0.3750000000000007
 40
0.3750000000000007
 40
0.4375000000000007
 40
0.4375000000000007
 40
0.4687500000000008
 40
0.4843750000000009
 40
0.4843750000000009
 40
0.500000000000001
 40
0.500000000000001
 40
0.5625000000000019
 40
0.5625000000000019
 40
0.6250000000000027
 40
0.6250000000000027
 40
0.6875000000000036
 40
0.6875000000000036
 40
0.718750000000004
 40
0.718750000000004
 40
0.7500000000000046
 40
0.7500000000000046
 40
0.781250000000005
 40
0.781250000000005
 40
0.8125000000000056
 40
0.8125000000000056
 40
0.843750000000006
 40
0.843750000000006
 40
0.859375000000006
 40
0.859375000000006
 40
0.867187500000006
 40
0.867187500000006
 40
0.875000000000006
 40
0.882812500000006
 40
0.882812500000006
 40
0.890625000000006
 40
0.890625000000006
 40
0.9062500000000053
 40
0.9062500000000053
 40
0.9375000000000036
 40
0.9375000000000036
 40
0.9687500000000018
 40
0.9687500000000018
 40
1.0
 40
1.0
 40
1.0
 40
1.0
 10
811.5479106537053
 20
556.4167405981447
 30
0.0
 10
811.5543192622952
 20
556.4167405981447
 30
0.0
 10
811.5607305385606
 20
556.4167478241573
 30
0.0
 10
811.5736157351021
 20
556.4167770243359
 30
0.0
 10
811.5929427106904
 20
556.4168427972811
 30
0.0
 10
811.6380332870353
 20
556.4171500408914
 30
0.0
 10
811.7281919145263
 20
556.4183793743432
 30
0.0
 10
811.9084212482699
 20
556.4232959862387
 30
0.0
 10
812.0627601889844
 20
556.4317207875829
 30
0.0
 10
812.3712659396693
 20
556.454198959164
 30
0.0
 10
812.5767070005534
 20
556.476680342661
 30
0.0
 10
812.8845976898008
 20
556.5218595669802
 30
0.0
 10
812.9871827428104
 20
556.5388309968268
 30
0.0
 10
813.1410016657018
 20
556.5672029231546
 30
0.0
 10
813.192247595951
 20
556.5771433796518
 30
0.0
 10
813.2945665753045
 20
556.597971528272
 30
0.0
 10
813.3456569548191
 20
556.6088623652489
 30
0.0
 10
813.6007662022117
 20
556.6657101152516
 30
0.0
 10
813.8037584679834
 20
556.7188357679636
 30
0.0
 10
814.207605082842
 20
556.840818452067
 30
0.0
 10
814.4084594178364
 20
556.9096734812829
 30
0.0
 10
814.8080485135605
 20
557.0638835269482
 30
0.0
 10
815.0067833631558
 20
557.1492349386897
 30
0.0
 10
815.4021169722831
 20
557.3376220317359
 30
0.0
 10
815.5987159563532
 20
557.4406514596737
 30
0.0
 10
815.8919704297242
 20
557.6097660009564
 30
0.0
 10
816.0381861735168
 20
557.697973257586
 30
0.0
 10
816.1837717400103
 20
557.7919834563016
 30
0.0
 10
816.2806869083654
 20
557.8559898402517
 30
0.0
 10
816.3290712915244
 20
557.8886593229141
 30
0.0
 10
816.5698184288918
 20
558.0548736807857
 30
0.0
 10
816.7593117066403
 20
558.1974111573422
 30
0.0
 10
817.1316843456259
 20
558.503507370982
 30
0.0
 10
817.3145666938506
 20
558.6670525953591
 30
0.0
 10
817.6730779723275
 20
559.0179909563657
 30
0.0
 10
817.8487127398992
 20
559.2053576623863
 30
0.0
 10
818.1059730222647
 20
559.5075522614205
 30
0.0
 10
818.1906911469787
 20
559.6118219466204
 30
0.0
 10
818.357876527184
 20
559.8282182799112
 30
0.0
 10
818.4396286187377
 20
559.9394255355522
 30
0.0
 10
818.5991720434046
 20
560.1681455895135
 30
0.0
 10
818.6769775878424
 20
560.2856752738951
 30
0.0
 10
818.8284042765998
 20
560.5275750742817
 30
0.0
 10
818.902026078854
 20
560.651943829203
 30
0.0
 10
819.0447626613444
 20
560.9081604078101
 30
0.0
 10
819.1138784394032
 20
561.0400061539943
 30
0.0
 10
819.2138580956246
 20
561.2440053178799
 30
0.0
 10
819.2465681404691
 20
561.3130451344955
 30
0.0
 10
819.2946601197615
 20
561.4182609664381
 30
0.0
 10
819.3105286323
 20
561.4536105415763
 30
0.0
 10
819.3418437588072
 20
561.5246742038198
 30
0.0
 10
819.3727597375287
 20
561.5961515331436
 30
0.0
 10
819.4028644453142
 20
561.6684726681516
 30
0.0
 10
819.4325565692711
 20
561.7412245141857
 30
0.0
 10
819.447206055757
 20
561.7778413159934
 30
0.0
 10
819.4904026431153
 20
561.8880367156871
 30
0.0
 10
819.5182268896934
 20
561.9620268212439
 30
0.0
 10
819.5987479590643
 20
562.1856023184363
 30
0.0
 10
819.6484961199237
 20
562.3367909434204
 30
0.0
 10
819.7398927390067
 20
562.6436249762455
 30
0.0
 10
819.7815418069637
 20
562.7992699007034
 30
0.0
 10
819.8564030708825
 20
563.115264015966
 30
0.0
 10
819.8896162057034
 20
563.2756124671678
 30
0.0
 10
819.9183792667229
 20
563.4384797285794
 30
0.0
  0
SPLINE
  5
163
330
1F
100
AcDbEntity
  8
1
  6
Continuous
 62
    30
370
    13
100
AcDbSpline
210
0.0
220
0.0
230
1.0
 70
     8
 71
     3
 72
    67
 73
    63
 74
     0
 42
0.000000001
 43
0.0000000001
 40
0.0
 40
0.0
 40
0.0
 40
0.0
 40
0.0312500000000005
 40
0.0312500000000005
 40
0.0625000000000011
 40
0.0625000000000011
 40
0.0937500000000016
 40
0.0937500000000016
 40
0.1093750000000016
 40
0.1093750000000016
 40
0.1250000000000016
 40
0.1250000000000016
 40
0.1406250000000016
 40
0.1406250000000016
 40
0.1562500000000015
 40
0.1562500000000015
 40
0.1875000000000016
 40
0.1875000000000016
 40
0.2187500000000018
 40
0.2187500000000018
 40
0.2500000000000019
 40
0.2500000000000019
 40
0.2656250000000022
 40
0.2656250000000022
 40
0.2812500000000024
 40
0.2812500000000024
 40
0.3125000000000024
 40
0.3125000000000024
 40
0.3750000000000023
 40
0.3750000000000023
 40
0.4375000000000022
 40
0.4375000000000022
 40
0.5000000000000021
 40
0.5000000000000021
 40
0.5156250000000021
 40
0.5156250000000021
 40
0.5312500000000022
 40
0.5625000000000022
 40
0.5625000000000022
 40
0.6250000000000023
 40
0.6250000000000023
 40
0.6875000000000024
 40
0.6875000000000024
 40
0.7500000000000024
 40
0.7500000000000024
 40
0.8125000000000026
 40
0.8125000000000026
 40
0.8281250000000026
 40
0.8281250000000026
 40
0.8437500000000024
 40
0.8437500000000024
 40
0.8750000000000021
 40
0.8750000000000021
 40
0.9375000000000011
 40
0.9375000000000011
 40
0.9687500000000006
 40
0.9843750000000002
 40
0.9921875000000001
 40
0.9960937500000001
 40
0.9980468750000001
 40
0.9980468750000001
 40
1.0
 40
1.0
 40
1.0
 40
1.0
 10
822.8726623066115
 20
562.9167405981447
 30
0.0
 10
822.8315521043924
 20
562.7574691034888
 30
0.0
 10
822.7839722236005
 20
562.6017444754978
 30
0.0
 10
822.6770027282287
 20
562.2967260492659
 30
0.0
 10
822.6176102541539
 20
562.1474340004725
 30
0.0
 10
822.4878647017699
 20
561.8547836486001
 30
0.0
 10
822.417509768157
 20
561.7114264730491
 30
0.0
 10
822.3042414957666
 20
561.5005571112634
 30
0.0
 10
822.2651946688333
 20
561.4309625521258
 30
0.0
 10
822.1845853452872
 20
561.2931252164813
 30
0.0
 10
822.1429663821551
 20
561.2247968539575
 30
0.0
 10
822.0576697941867
 20
561.0900762146163
 30
0.0
 10
822.0139267895196
 20
561.0235785111141
 30
0.0
 10
821.9248016700816
 20
560.892881974612
 30
0.0
 10
821.8793916245841
 20
560.828633795818
 30
0.0
 10
821.7407626288993
 20
560.6389900832775
 30
0.0
 10
821.6451497479011
 20
560.5166884844107
 30
0.0
 10
821.448161946757
 20
560.2794742078185
 30
0.0
 10
821.3467855003312
 20
560.1645637048695
 30
0.0
 10
821.1387516264587
 20
559.9414664097068
 30
0.0
 10
821.0320931961285
 20
559.8332810406235
 30
0.0
 10
820.8684287490117
 20
559.6756532689933
 30
0.0
 10
820.8132604201601
 20
559.6238867094826
 30
0.0
 10
820.7017366697721
 20
559.5218503934865
 30
0.0
 10
820.6453115828416
 20
559.4715212953811
 30
0.0
 10
820.4749881001354
 20
559.3232887002503
 30
0.0
 10
820.3599847953545
 20
559.2280658526993
 30
0.0
 10
820.010993085744
 20
558.9521524481258
 30
0.0
 10
819.7730409400866
 20
558.7811680290775
 30
0.0
 10
819.288006744871
 20
558.4611506788267
 30
0.0
 10
819.0409166602357
 20
558.3121402209075
 30
0.0
 10
818.5385440551544
 20
558.0334989081375
 30
0.0
 10
818.2832573253431
 20
557.9038797948676
 30
0.0
 10
817.9594190513824
 20
557.7528785485201
 30
0.0
 10
817.8944012922834
 20
557.7232262905336
 30
0.0
 10
817.7642579303224
 20
557.665161868119
 30
0.0
 10
817.5687480329422
 20
557.5798628470702
 30
0.0
 10
817.3723730980699
 20
557.4997913521413
 30
0.0
 10
816.9785132066739
 20
557.3462452792976
 30
0.0
 10
816.7144621251484
 20
557.252660763687
 30
0.0
 10
816.1835731774901
 20
557.0815349622746
 30
0.0
 10
815.9167347478516
 20
557.0039986718424
 30
0.0
 10
815.3803741777692
 20
556.8639334173736
 30
0.0
 10
815.1108517259539
 20
556.8014074009363
 30
0.0
 10
814.5691749256735
 20
556.6906755794049
 30
0.0
 10
814.2970204320839
 20
556.6424714619061
 30
0.0
 10
813.9551868297012
 20
556.5909131762155
 30
0.0
 10
813.8867379799788
 20
556.5810369940823
 30
0.0
 10
813.7496757207981
 20
556.5621516615649
 30
0.0
 10
813.6810399565323
 20
556.5531398082779
 30
0.0
 10
813.4750805132446
 20
556.5274241994894
 30
0.0
 10
813.3377129063623
 20
556.5120394064442
 30
0.0
 10
812.9254167332015
 20
556.4710814255927
 30
0.0
 10
812.6502950227992
 20
556.4506974125081
 30
0.0
 10
812.2371853547063
 20
556.4303186872859
 30
0.0
 10
812.0305236738554
 20
556.4226814073055
 30
0.0
 10
811.7892215705785
 20
556.4182253488523
 30
0.0
 10
811.6685200039359
 20
556.417111406272
 30
0.0
 10
811.6081564246111
 20
556.4168330838393
 30
0.0
 10
811.5822835589917
 20
556.4167735329129
 30
0.0
 10
811.5650343664975
 20
556.4167471081876
 30
0.0
 10
811.5564764314996
 20
556.4167405981447
 30
0.0
 10
811.5479106537053
 20
556.4167405981447
 30
0.0
  0
SPLINE
  5
164
330
1F
100
AcDbEntity
  8
1
  6
Continuous
 62
    30
370
    13
100
AcDbSpline
210
0.0
220
0.0
230
1.0
 70
     8
 71
     3
 72
    56
 73
    52
 74
     0
 42
0.000000001
 43
0.0000000001
 40
0.0
 40
0.0
 40
0.0
 40
0.0
 40
0.0624999999999973
 40
0.0624999999999973
 40
0.1249999999999945
 40
0.1249999999999945
 40
0.1562499999999935
 40
0.1562499999999935
 40
0.171874999999993
 40
0.171874999999993
 40
0.1874999999999925
 40
0.1874999999999925
 40
0.2499999999999905
 40
0.2499999999999905
 40
0.3124999999999884
 40
0.3124999999999884
 40
0.3281249999999881
 40
0.3281249999999881
 40
0.3437499999999878
 40
0.3437499999999878
 40
0.374999999999988
 40
0.374999999999988
 40
0.4374999999999878
 40
0.4374999999999878
 40
0.4687499999999878
 40
0.484374999999988
 40
0.484374999999988
 40
0.4999999999999882
 40
0.4999999999999882
 40
0.5624999999999897
 40
0.5624999999999897
 40
0.6249999999999911
 40
0.6249999999999911
 40
0.6562499999999917
 40
0.6562499999999917
 40
0.6718749999999919
 40
0.6718749999999919
 40
0.6874999999999921
 40
0.6874999999999921
 40
0.7499999999999936
 40
0.7499999999999936
 40
0.812499999999995
 40
0.812499999999995
 40
0.8749999999999964
 40
0.8749999999999964
 40
0.8906249999999969
 40
0.8906249999999969
 40
0.9062499999999973
 40
0.9374999999999981
 40
0.9374999999999981
 40
1.0
 40
1.0
 40
1.0
 40
1.0
 10
796.0217408894645
 20
562.9167405981447
 30
0.0
 10
796.0322474045412
 20
562.6423402085958
 30
0.0
 10
796.0482648701735
 20
562.3713235680074
 30
0.0
 10
796.0915867303955
 20
561.835805571989
 30
0.0
 10
796.1188927124955
 20
561.5713059560807
 30
0.0
 10
796.1699596733198
 20
561.1795831043398
 30
0.0
 10
796.1886813712055
 20
561.0498497940476
 30
0.0
 10
796.2196613683503
 20
560.8565583558449
 30
0.0
 10
796.2304875764088
 20
560.7922693170682
 30
0.0
 10
796.2529973015088
 20
560.6651231522634
 30
0.0
 10
796.2646975278752
 20
560.6021535862875
 30
0.0
 10
796.3255303475596
 20
560.2902930399553
 30
0.0
 10
796.381612964669
 20
560.0503322725734
 30
0.0
 10
796.5120305079124
 20
559.5892367026863
 30
0.0
 10
796.5863637233037
 20
559.368107531558
 30
0.0
 10
796.6935488823386
 20
559.103762170508
 30
0.0
 10
796.7157023012326
 20
559.051497909419
 30
0.0
 10
796.7615256932348
 20
558.9481921933597
 30
0.0
 10
796.7850898233997
 20
558.897394004003
 30
0.0
 10
796.8576001856227
 20
558.7479226808478
 30
0.0
 10
796.9084447230715
 20
558.6519894920087
 30
0.0
 10
797.0688847135128
 20
558.3748608055627
 30
0.0
 10
797.1863882992456
 20
558.2043211177283
 30
0.0
 10
797.380015280399
 20
557.9683113569627
 30
0.0
 10
797.4811711135355
 20
557.8552628672852
 30
0.0
 10
797.5891261364654
 20
557.749409765037
 30
0.0
 10
797.6626383422621
 20
557.680415674984
 30
0.0
 10
797.7001824308048
 20
557.6466913740702
 30
0.0
 10
797.8916618782094
 20
557.4820957100429
 30
0.0
 10
798.0539735749331
 20
557.3657208191214
 30
0.0
 10
798.39637785962
 20
557.1585905796892
 30
0.0
 10
798.5764691684473
 20
557.0678496583247
 30
0.0
 10
798.8595690272666
 20
556.9480169933984
 30
0.0
 10
798.956096104067
 20
556.9107926432154
 30
0.0
 10
799.1040816280228
 20
556.8587179856838
 30
0.0
 10
799.153942629076
 20
556.8419870564584
 30
0.0
 10
799.2547221114062
 20
556.8097302426389
 30
0.0
 10
799.3056557537701
 20
556.7942018557202
 30
0.0
 10
799.561794836864
 20
556.7197702727779
 30
0.0
 10
799.7723042269132
 20
556.670154282454
 30
0.0
 10
800.2037039173969
 20
556.5867162584224
 30
0.0
 10
800.4245952406258
 20
556.5529064898576
 30
0.0
 10
800.8760965788741
 20
556.4979462106617
 30
0.0
 10
801.1067073726853
 20
556.4768033441973
 30
0.0
 10
801.4007084419195
 20
556.4567042352197
 30
0.0
 10
801.4598174114882
 20
556.4530010421482
 30
0.0
 10
801.5784081409998
 20
556.4462050365049
 30
0.0
 10
801.7569069667876
 20
556.4369226767402
 30
0.0
 10
801.9372149493623
 20
556.4301993717316
 30
0.0
 10
802.3001740531087
 20
556.4197405298357
 30
0.0
 10
802.545268549023
 20
556.4167405981447
 30
0.0
 10
802.7933327648426
 20
556.4167405981447
 30
0.0
  0
SPLINE
  5
165
330
1F
100
AcDbEntity
  8
1
  6
Continuous
 62
    30
370
    13
100
AcDbSpline
210
0.0
220
0.0
230
1.0
 70
     8
 71
     3
 72
    58
 73
    54
 74
     0
 42
0.000000001
 43
0.0000000001
 40
0.0
 40
0.0
 40
0.0
 40
0.0
 40
0.0624999999999998
 40
0.0624999999999998
 40
0.1249999999999996
 40
0.1249999999999996
 40
0.1874999999999994
 40
0.1874999999999994
 40
0.2499999999999993
 40
0.2499999999999993
 40
0.2656249999999992
 40
0.2656249999999992
 40
0.2812499999999991
 40
0.2812499999999991
 40
0.3124999999999987
 40
0.3124999999999987
 40
0.3749999999999983
 40
0.3749999999999983
 40
0.4374999999999978
 40
0.4374999999999978
 40
0.4687499999999977
 40
0.4687499999999977
 40
0.4999999999999975
 40
0.4999999999999975
 40
0.5624999999999977
 40
0.5624999999999977
 40
0.624999999999998
 40
0.624999999999998
 40
0.640624999999998
 40
0.648437499999998
 40
0.648437499999998
 40
0.656249999999998
 40
0.656249999999998
 40
0.6874999999999984
 40
0.6874999999999984
 40
0.75
 40
0.75
 40
0.7812500000000012
 40
0.7812500000000012
 40
0.7968750000000017
 40
0.8046875000000016
 40
0.8046875000000016
 40
0.8125000000000014
 40
0.8125000000000014
 40
0.8750000000000007
 40
0.8750000000000007
 40
0.9375
 40
0.9375
 40
0.96875
 40
0.96875
 40
0.9843750000000003
 40
0.9843750000000003
 40
1.0
 40
1.0
 40
1.0
 40
1.0
 10
820.3024885425681
 20
556.4167405981447
 30
0.0
 10
820.5503174550265
 20
556.4167405981447
 30
0.0
 10
820.794688849975
 20
556.4197373934347
 30
0.0
 10
821.276189534098
 20
556.4335633280538
 30
0.0
 10
821.513319350362
 20
556.4443883007585
 30
0.0
 10
821.9799222816066
 20
556.4760662110093
 30
0.0
 10
822.2093961370523
 20
556.4969127233197
 30
0.0
 10
822.6601655095685
 20
556.5513467042789
 30
0.0
 10
822.88146205945
 20
556.5849238834459
 30
0.0
 10
823.1525619497877
 20
556.6370295068335
 30
0.0
 10
823.2065055155346
 20
556.6479596833323
 30
0.0
 10
823.3138279862231
 20
556.670903030447
 30
0.0
 10
823.3672137919667
 20
556.6829195811422
 30
0.0
 10
823.525809589998
 20
556.7205230129217
 30
0.0
 10
823.6296908174793
 20
556.7477102892315
 30
0.0
 10
823.9356710093114
 20
556.8362171465507
 30
0.0
 10
824.1321086384542
 20
556.904456964862
 30
0.0
 10
824.5092158698925
 20
557.0630633372416
 30
0.0
 10
824.6898850581797
 20
557.1534173928529
 30
0.0
 10
824.9485120612978
 20
557.3089764984959
 30
0.0
 10
825.0326809518344
 20
557.3641926168884
 30
0.0
 10
825.1967024295676
 20
557.481951330203
 30
0.0
 10
825.275680485404
 20
557.5438669835844
 30
0.0
 10
825.5037757066746
 20
557.739093443178
 30
0.0
 10
825.6440498167015
 20
557.8818709094195
 30
0.0
 10
825.9024962588828
 20
558.1948981691389
 30
0.0
 10
826.0206688157627
 20
558.3651379252876
 30
0.0
 10
826.1555748277713
 20
558.5968154367255
 30
0.0
 10
826.195086349774
 20
558.6677371740274
 30
0.0
 10
826.2331869209214
 20
558.7408440723383
 30
0.0
 10
826.2582770733342
 20
558.790074454439
 30
0.0
 10
826.2706636306166
 20
558.8149307034197
 30
0.0
 10
826.331563956921
 20
558.9398980318161
 30
0.0
 10
826.3772056731973
 20
559.0424978436654
 30
0.0
 10
826.5058129219167
 20
559.3580737994923
 30
0.0
 10
826.5804907378513
 20
559.5788059655785
 30
0.0
 10
826.6790229751533
 20
559.9253539166872
 30
0.0
 10
826.7096120456523
 20
560.0434496673452
 30
0.0
 10
826.7524325654256
 20
560.2245045918086
 30
0.0
 10
826.7730763317862
 20
560.3160104675242
 30
0.0
 10
826.7926235348257
 20
560.4089976241918
 30
0.0
 10
826.8054167488084
 20
560.4713202042971
 30
0.0
 10
826.8116994450571
 20
560.5026737973473
 30
0.0
 10
826.8670806244666
 20
560.7857654431368
 30
0.0
 10
826.9077913376283
 20
561.0420452893661
 30
0.0
 10
826.9760273253594
 20
561.5633476033582
 30
0.0
 10
827.0035448568051
 20
561.8283699130824
 30
0.0
 10
827.036364213933
 20
562.2324445684138
 30
0.0
 10
827.0458803647273
 20
562.3682303612335
 30
0.0
 10
827.0580679092053
 20
562.5735883743881
 30
0.0
 10
827.0617729862811
 20
562.6421823886561
 30
0.0
 10
827.0684627290455
 20
562.7793867672221
 30
0.0
 10
827.0714498936305
 20
562.8480387601257
 30
0.0
 10
827.0740804179462
 20
562.9167405981447
 30
0.0
  0
SPLINE
  5
166
330
1F
100
AcDbEntity
  8
1
  6
Continuous
 62
    30
370
    13
100
AcDbSpline
210
0.0
220
0.0
230
1.0
 70
     8
 71
     3
 72
     8
 73
     4
 74
     0
 42
0.000000001
 43
0.0000000001
 40
0.0
 40
0.0
 40
0.0
 40
0.0
 40
1.0
 40
1.0
 40
1.0
 40
1.0
 10
793.0961340078627
 20
562.8400963294523
 30
0.0
 10
793.0688936169317
 20
563.8705063744211
 30
0.0
 10
793.0416584890085
 20
564.9009165642875
 30
0.0
 10
793.0144285341552
 20
565.9313268964268
 30
0.0
  0
SPLINE
  5
167
330
1F
100
AcDbEntity
  8
1
  6
Continuous
 62
    30
370
    13
100
AcDbSpline
210
0.0
220
0.0
230
1.0
 70
     8
 71
     3
 72
     8
 73
     4
 74
     0
 42
0.000000001
 43
0.0000000001
 40
0.0
 40
0.0
 40
0.0
 40
0.0
 40
1.0
 40
1.0
 40
1.0
 40
1.0
 10
830.0813927732555
 20
565.9313268964268
 30
0.0
 10
830.0541628184022
 20
564.9009165642875
 30
0.0
 10
830.0269276904789
 20
563.8705063744211
 30
0.0
 10
829.999687299548
 20
562.8400963294523
 30
0.0
  0
SPLINE
  5
168
330
1F
100
AcDbEntity
  8
1
  6
Continuous
 62
    30
370
    13
100
AcDbSpline
210
0.0
220
0.0
230
1.0
 70
     8
 71
     3
 72
    66
 73
    62
 74
     0
 42
0.000000001
 43
0.0000000001
 40
0.0
 40
0.0
 40
0.0
 40
0.0
 40
0.0156249999999993
 40
0.0234374999999988
 40
0.0234374999999988
 40
0.0312499999999982
 40
0.0312499999999982
 40
0.0624999999999963
 40
0.0624999999999963
 40
0.0937499999999945
 40
0.1249999999999926
 40
0.1249999999999926
 40
0.187499999999989
 40
0.187499999999989
 40
0.1953124999999887
 40
0.1953124999999887
 40
0.2031249999999885
 40
0.2187499999999884
 40
0.2187499999999884
 40
0.2499999999999883
 40
0.2499999999999883
 40
0.3124999999999877
 40
0.3124999999999877
 40
0.3437499999999872
 40
0.3437499999999872
 40
0.3515624999999875
 40
0.3515624999999875
 40
0.3593749999999876
 40
0.3593749999999876
 40
0.3749999999999882
 40
0.3749999999999882
 40
0.4374999999999903
 40
0.4374999999999903
 40
0.4999999999999925
 40
0.4999999999999925
 40
0.5312499999999936
 40
0.5312499999999936
 40
0.5468749999999939
 40
0.5468749999999939
 40
0.5546874999999939
 40
0.5546874999999939
 40
0.5624999999999939
 40
0.5624999999999939
 40
0.6249999999999948
 40
0.6249999999999948
 40
0.6874999999999954
 40
0.6874999999999954
 40
0.7187499999999958
 40
0.7187499999999958
 40
0.734374999999996
 40
0.7421874999999961
 40
0.7421874999999961
 40
0.7499999999999962
 40
0.7499999999999962
 40
0.8124999999999971
 40
0.8124999999999971
 40
0.8749999999999981
 40
0.8749999999999981
 40
0.937499999999999
 40
0.937499999999999
 40
1.0
 40
1.0
 40
1.0
 40
1.0
 10
829.999687299548
 20
562.8400963294523
 30
0.0
 10
829.997032440838
 20
562.7396721802675
 30
0.0
 10
829.9924141282512
 20
562.5891620544216
 30
0.0
 10
829.9868392610351
 20
562.4388406531974
 30
0.0
 10
829.9829086818097
 20
562.3386683662746
 30
0.0
 10
829.9808350034441
 20
562.2885706783201
 30
0.0
 10
829.9699451173656
 20
562.0385902330547
 30
0.0
 10
829.9595942871346
 20
561.8407227635117
 30
0.0
 10
829.9355818587512
 20
561.449052945609
 30
0.0
 10
829.9082578732276
 20
561.0614487704979
 30
0.0
 10
829.8739706246356
 20
560.6817676827468
 30
0.0
 10
829.8168719919435
 20
560.1181140537348
 30
0.0
 10
829.7713154658549
 20
559.7501455736964
 30
0.0
 10
829.709438968043
 20
559.3450650925321
 30
0.0
 10
829.7024099256942
 20
559.3001515114885
 30
0.0
 10
829.6881067549014
 20
559.2109567972169
 30
0.0
 10
829.6662647034988
 20
559.0779807000944
 30
0.0
 10
829.6432388671786
 20
558.9474172267329
 30
0.0
 10
829.5955444627097
 20
558.6894247692377
 30
0.0
 10
829.5615597894306
 20
558.521605855227
 30
0.0
 10
829.4524536426507
 20
558.0301512603696
 30
0.0
 10
829.3702094286417
 20
557.7184807383933
 30
0.0
 10
829.2296957925026
 20
557.2736385213485
 30
0.0
 10
829.1799927139987
 20
557.1291450913277
 30
0.0
 10
829.1139242178882
 20
556.9531941264241
 30
0.0
 10
829.1005133785302
 20
556.9182373733397
 30
0.0
 10
829.0732878224555
 20
556.8487896186201
 30
0.0
 10
829.0594608241362
 20
556.8142688591043
 30
0.0
 10
829.0174542915436
 20
556.7116346466593
 30
0.0
 10
828.9887819432734
 20
556.6445227620098
 30
0.0
 10
828.8419959289073
 20
556.3153008832645
 30
0.0
 10
828.7136169306771
 20
556.0721375521658
 30
0.0
 10
828.432680116603
 20
555.6218675644628
 30
0.0
 10
828.2801236564759
 20
555.4147817195842
 30
0.0
 10
828.0312908710788
 20
555.128917609798
 30
0.0
 10
827.9450118368483
 20
555.0377651375057
 30
0.0
 10
827.8103397543857
 20
554.907011877784
 30
0.0
 10
827.7645733331381
 20
554.8644237229549
 30
0.0
 10
827.6945773514553
 20
554.80201032131
 30
0.0
 10
827.6710309973757
 20
554.7814603471253
 30
0.0
 10
827.6236222725494
 20
554.7409598354516
 30
0.0
 10
827.5997440215119
 20
554.7209950212849
 30
0.0
 10
827.3832699678479
 20
554.5438299904908
 30
0.0
 10
827.1796888853988
 20
554.4042024783248
 30
0.0
 10
826.7496197161298
 20
554.1557015351244
 30
0.0
 10
826.5231329064228
 20
554.0468439446661
 30
0.0
 10
826.1657066180959
 20
553.9037100643648
 30
0.0
 10
826.0436142556102
 20
553.8593641008181
 30
0.0
 10
825.8559760586551
 20
553.7975750392568
 30
0.0
 10
825.7610319374007
 20
553.7678634088473
 30
0.0
 10
825.6643853070286
 20
553.7398699819432
 30
0.0
 10
825.5995741429819
 20
553.7215834937583
 30
0.0
 10
825.5669601981073
 20
553.7126233280126
 30
0.0
 10
825.2722198718159
 20
553.6337789812557
 30
0.0
 10
825.0015461789601
 20
553.5763952808147
 30
0.0
 10
824.4430550789759
 20
553.482463698462
 30
0.0
 10
824.1552377047892
 20
553.4459275260939
 30
0.0
 10
823.5625168781718
 20
553.3899643197506
 30
0.0
 10
823.2576136800037
 20
553.3705449901234
 30
0.0
 10
822.6306117938575
 20
553.3456083149697
 30
0.0
 10
822.3085136500837
 20
553.3400963294523
 30
0.0
 10
821.9776736889096
 20
553.3400963294523
 30
0.0
  0
SPLINE
  5
169
330
1F
100
AcDbEntity
  8
1
  6
Continuous
 62
    30
370
    13
100
AcDbSpline
210
0.0
220
0.0
230
1.0
 70
     8
 71
     3
 72
    60
 73
    56
 74
     0
 42
0.000000001
 43
0.0000000001
 40
0.0
 40
0.0
 40
0.0
 40
0.0
 40
0.0624999999999992
 40
0.0624999999999992
 40
0.0937499999999987
 40
0.0937499999999987
 40
0.1093749999999984
 40
0.1093749999999984
 40
0.1249999999999981
 40
0.1249999999999981
 40
0.187499999999997
 40
0.187499999999997
 40
0.2499999999999959
 40
0.2499999999999959
 40
0.2812499999999953
 40
0.2812499999999953
 40
0.296874999999995
 40
0.296874999999995
 40
0.3124999999999947
 40
0.3124999999999947
 40
0.374999999999994
 40
0.374999999999994
 40
0.4374999999999933
 40
0.4374999999999933
 40
0.4687499999999928
 40
0.4687499999999928
 40
0.4843749999999925
 40
0.4843749999999925
 40
0.4999999999999921
 40
0.4999999999999921
 40
0.5624999999999921
 40
0.5624999999999921
 40
0.624999999999992
 40
0.624999999999992
 40
0.6562499999999921
 40
0.6562499999999921
 40
0.6718749999999922
 40
0.6718749999999922
 40
0.6874999999999923
 40
0.6874999999999923
 40
0.7499999999999932
 40
0.7499999999999932
 40
0.812499999999994
 40
0.812499999999994
 40
0.828124999999994
 40
0.828124999999994
 40
0.8359374999999942
 40
0.8359374999999942
 40
0.8437499999999944
 40
0.8749999999999956
 40
0.9062499999999967
 40
0.9374999999999978
 40
0.968749999999999
 40
0.968749999999999
 40
1.0
 40
1.0
 40
1.0
 40
1.0
 10
801.118147618501
 20
553.3400963294523
 30
0.0
 10
800.7872546301998
 20
553.3400963294523
 30
0.0
 10
800.4641050072072
 20
553.3456047217963
 30
0.0
 10
799.9909336827156
 20
553.3644949843103
 30
0.0
 10
799.8351367907095
 20
553.3725658878128
 30
0.0
 10
799.6043361544497
 20
553.3876611789893
 30
0.0
 10
799.5278467117793
 20
553.3931945073367
 30
0.0
 10
799.3760235387014
 20
553.4053006045259
 30
0.0
 10
799.3007288688596
 20
553.4118696450336
 30
0.0
 10
798.9273264397135
 20
553.4474159046557
 30
0.0
 10
798.6384246132582
 20
553.4844788384091
 30
0.0
 10
798.0800234554445
 20
553.5792100313215
 30
0.0
 10
797.8105246616129
 20
553.6368695348441
 30
0.0
 10
797.4207745684563
 20
553.7417538371471
 30
0.0
 10
797.2932754580833
 20
553.7797864429946
 30
0.0
 10
797.1056571082373
 20
553.8418710801122
 30
0.0
 10
797.0437227835837
 20
553.8634057257264
 30
0.0
 10
796.9210658988113
 20
553.908232426213
 30
0.0
 10
796.8603287164962
 20
553.9315332070879
 30
0.0
 10
796.5609312625261
 20
554.0521039986094
 30
0.0
 10
796.3341049612532
 20
554.1619093063007
 30
0.0
 10
795.9047594634985
 20
554.4115997000453
 30
0.0
 10
795.702241836959
 20
554.5514722425028
 30
0.0
 10
795.4159831150059
 20
554.7869705419905
 30
0.0
 10
795.3234839732787
 20
554.8697589844815
 30
0.0
 10
795.1890324404378
 20
555.0008534327051
 30
0.0
 10
795.1449314928202
 20
555.0457042318569
 30
0.0
 10
795.058148490197
 20
555.1378000964245
 30
0.0
 10
795.0156345691835
 20
555.1848677797029
 30
0.0
 10
794.8074836524708
 20
555.4252189191436
 30
0.0
 10
794.6549275539593
 20
555.6336795132842
 30
0.0
 10
794.3748071824399
 20
556.085423182178
 30
0.0
 10
794.2472448476847
 20
556.3286896178502
 30
0.0
 10
794.0726674252397
 20
556.7223498200043
 30
0.0
 10
794.0172714017889
 20
556.8583732098905
 30
0.0
 10
793.9381432375753
 20
557.0700621224495
 30
0.0
 10
793.91240053774
 20
557.1419931765415
 30
0.0
 10
793.8625602547256
 20
557.2874054288171
 30
0.0
 10
793.8384182032622
 20
557.3609981062965
 30
0.0
 10
793.7214039006873
 20
557.7334096486784
 30
0.0
 10
793.6395754435911
 20
558.0455312126795
 30
0.0
 10
793.4952323070361
 20
558.69918720707
 30
0.0
 10
793.4327174671478
 20
559.0407055655552
 30
0.0
 10
793.3646779068055
 20
559.4874252753556
 30
0.0
 10
793.3515779658043
 20
559.5777642612067
 30
0.0
 10
793.3326617922484
 20
559.7148058137273
 30
0.0
 10
793.3264752816325
 20
559.7607682501151
 30
0.0
 10
793.3143576166636
 20
559.8530978547278
 30
0.0
 10
793.2847723292122
 20
560.0844005271181
 30
0.0
 10
793.2376653198983
 20
560.5050205603329
 30
0.0
 10
793.186504646479
 20
561.0748269291005
 30
0.0
 10
793.1459489597362
 20
561.6535888271392
 30
0.0
 10
793.1255520387382
 20
562.0454636333834
 30
0.0
 10
793.1083961301817
 20
562.440430293364
 30
0.0
 10
793.1014381405729
 20
562.639459281391
 30
0.0
 10
793.0961340078627
 20
562.8400963294523
 30
0.0
  0
SPLINE
  5
16A
330
1F
100
AcDbEntity
  8
1
  6
Continuous
 62
    30
370
    18
100
AcDbSpline
210
0.0
220
0.0
230
1.0
 70
     8
 71
     3
 72
    28
 73
    24
 74
     0
 42
0.000000001
 43
0.0000000001
 40
0.0
 40
0.0
 40
0.0
 40
0.0
 40
0.0112528336347493
 40
0.0469329821006451
 40
0.0856472792585082
 40
0.127189652192999
 40
0.1709542151258463
 40
0.216441658093727
 40
0.2632456808165091
 40
0.3110429692456185
 40
0.3595823055371647
 40
0.4086780083959574
 40
0.4530370482960719
 40
0.4993751417168697
 40
0.5514001576318754
 40
0.604478733128575
 40
0.65884440384669
 40
0.7145865858222633
 40
0.7716923515340206
 40
0.8300323212035623
 40
0.8893570719907592
 40
0.9480266080985104
 40
1.0
 40
1.0
 40
1.0
 40
1.0
 10
375.0855353928421
 20
165.9677626384776
 30
0.0
 10
375.0647514889119
 20
165.9607383479427
 30
0.0
 10
374.9739350778031
 20
165.9300466651129
 30
0.0
 10
374.7899988539938
 20
165.8675058142587
 30
0.0
 10
374.4986054320163
 20
165.7658622607085
 30
0.0
 10
374.1495713768349
 20
165.6390139905095
 30
0.0
 10
373.7454964841197
 20
165.4842361177435
 30
0.0
 10
373.2926823867585
 20
165.2997972817906
 30
0.0
 10
372.797744785927
 20
165.0840579838654
 30
0.0
 10
372.2677905120728
 20
164.835770080524
 30
0.0
 10
371.7096714306845
 20
164.5537553599658
 30
0.0
 10
371.1513123079509
 20
164.2491899699249
 30
0.0
 10
370.5911968374673
 20
163.9190919766576
 30
0.0
 10
370.0191883753232
 20
163.5544993800053
 30
0.0
 10
369.4140697561641
 20
163.1371427518328
 30
0.0
 10
368.7837348336582
 20
162.665184810827
 30
0.0
 10
368.1500243053833
 20
162.150039038276
 30
0.0
 10
367.5167904574492
 20
161.5901614804738
 30
0.0
 10
366.8896125099622
 20
160.9849902017693
 30
0.0
 10
366.2752524940139
 20
160.3354163995306
 30
0.0
 10
365.6870410113012
 20
159.6481031329313
 30
0.0
 10
365.1515410339938
 20
158.9581626656755
 30
0.0
 10
364.8261755690261
 20
158.4922220905507
 30
0.0
 10
364.6781564796363
 20
158.2696459582012
 30
0.0
  0
SPLINE
  5
16B
330
1F
100
AcDbEntity
  8
1
  6
Continuous
 62
    30
370
    18
100
AcDbSpline
210
0.0
220
0.0
230
1.0
 70
     8
 71
     3
 72
    28
 73
    24
 74
     0
 42
0.000000001
 43
0.0000000001
 40
0.0
 40
0.0
 40
0.0
 40
0.0
 40
0.0112528336231743
 40
0.046932982089469
 40
0.0856472792477807
 40
0.1271896521827549
 40
0.170954215116103
 40
0.2164416580845167
 40
0.2632456808078431
 40
0.3110429692375023
 40
0.3595823055296089
 40
0.4086780083889811
 40
0.4530370482896128
 40
0.4993751417109533
 40
0.551400157626566
 40
0.6044787331238791
 40
0.6588444038426267
 40
0.7145865858188476
 40
0.7716923515312674
 40
0.8300323212014867
 40
0.8893570719893734
 40
0.9480266080978166
 40
1.0
 40
1.0
 40
1.0
 40
1.0
 10
385.2422542787045
 20
129.7141695396678
 30
0.0
 10
385.2630381826152
 20
129.7211938301962
 30
0.0
 10
385.3538545937038
 20
129.7518855130192
 30
0.0
 10
385.5377908174878
 20
129.8144263638647
 30
0.0
 10
385.8291842394651
 20
129.9160699174149
 30
0.0
 10
386.1782182946465
 20
130.0429181876139
 30
0.0
 10
386.5822931873616
 20
130.1976960603798
 30
0.0
 10
387.0351072847228
 20
130.3821348963327
 30
0.0
 10
387.5300448855542
 20
130.5978741942579
 30
0.0
 10
388.0599991594083
 20
130.8461620975991
 30
0.0
 10
388.6181182407965
 20
131.1281768181572
 30
0.0
 10
389.1764773635301
 20
131.4327422081981
 30
0.0
 10
389.7365928340138
 20
131.7628402014654
 30
0.0
 10
390.3086012961579
 20
132.1274327981177
 30
0.0
 10
390.913719915317
 20
132.54478942629
 30
0.0
 10
391.5440548378228
 20
133.0167473672958
 30
0.0
 10
392.1777653660978
 20
133.5318931398468
 30
0.0
 10
392.8109992140319
 20
134.0917706976489
 30
0.0
 10
393.4381771615189
 20
134.6969419763534
 30
0.0
 10
394.0525371774673
 20
135.346515778592
 30
0.0
 10
394.64074866018
 20
136.0338290451912
 30
0.0
 10
395.1762486374878
 20
136.7237695124473
 30
0.0
 10
395.5016141024558
 20
137.1897100875726
 30
0.0
 10
395.6496331918459
 20
137.4122862199225
 30
0.0
  0
SPLINE
  5
16C
330
1F
100
AcDbEntity
  8
1
  6
Continuous
 62
    30
370
    18
100
AcDbSpline
210
0.0
220
0.0
230
1.0
 70
     8
 71
     3
 72
    28
 73
    24
 74
     0
 42
0.000000001
 43
0.0000000001
 40
0.0
 40
0.0
 40
0.0
 40
0.0
 40
0.0119604982885261
 40
0.0756049398869053
 40
0.1386038269726906
 40
0.198580356242075
 40
0.2569518590003269
 40
0.3148145421074335
 40
0.3717946912532062
 40
0.4276548253592976
 40
0.4823095316200488
 40
0.5358208908451497
 40
0.5800286358955373
 40
0.6223423010716167
 40
0.6657159219388386
 40
0.7133776267020756
 40
0.7607703135966773
 40
0.8077116671994107
 40
0.8539212026310221
 40
0.8990337721910062
 40
0.9425785690799635
 40
0.9794761396900203
 40
1.0
 40
1.0
 40
1.0
 40
1.0
 10
395.6487820938905
 20
158.2688270535149
 30
0.0
 10
395.6157432169731
 20
158.3206484191243
 30
0.0
 10
395.4046148354159
 20
158.6466088150476
 30
0.0
 10
394.9785659241136
 20
159.2180718714181
 30
0.0
 10
394.3788821204922
 20
159.9651682138727
 30
0.0
 10
393.7563989049622
 20
160.6552441419506
 30
0.0
 10
393.1234358214953
 20
161.2941000038057
 30
0.0
 10
392.4771776987485
 20
161.8895712324385
 30
0.0
 10
391.8213998671986
 20
162.4434718673475
 30
0.0
 10
391.1639660598806
 20
162.953397451789
 30
0.0
 10
390.5109304427262
 20
163.4186930535814
 30
0.0
 10
389.9006074195137
 20
163.8177870992635
 30
0.0
 10
389.3385029304694
 20
164.1560294714672
 30
0.0
 10
388.8244451880624
 20
164.4429373498891
 30
0.0
 10
388.3070311839934
 20
164.7130100859609
 30
0.0
 10
387.7852705689038
 20
164.9663267405371
 30
0.0
 10
387.2717024924732
 20
165.1980771494108
 30
0.0
 10
386.7899387622998
 20
165.4007053307092
 30
0.0
 10
386.3473691709585
 20
165.5749878677125
 30
0.0
 10
385.9519937984268
 20
165.7217571122399
 30
0.0
 10
385.6228460479809
 20
165.838082865261
 30
0.0
 10
385.3946868850778
 20
165.9161683281523
 30
0.0
 10
385.2804467252571
 20
165.9548395904367
 30
0.0
 10
385.2432363340918
 20
165.9674279378897
 30
0.0
  0
SPLINE
  5
16D
330
1F
100
AcDbEntity
  8
1
  6
Continuous
 62
    30
370
    18
100
AcDbSpline
210
0.0
220
0.0
230
1.0
 70
     8
 71
     3
 72
    28
 73
    24
 74
     0
 42
0.000000001
 43
0.0000000001
 40
0.0
 40
0.0
 40
0.0
 40
0.0
 40
0.0119604982887303
 40
0.0756049398883029
 40
0.1386038269752677
 40
0.1985803562457783
 40
0.2569518590051187
 40
0.3148145421133134
 40
0.3717946912601571
 40
0.4276548253672915
 40
0.4823095316290698
 40
0.535820890855174
 40
0.5800286359063879
 40
0.6223423010832604
 40
0.6657159219512925
 40
0.7133776267154186
 40
0.7607703136109178
 40
0.8077116672145267
 40
0.8539212026470017
 40
0.8990337722078392
 40
0.9425785690976062
 40
0.979476139708352
 40
1.0
 40
1.0
 40
1.0
 40
1.0
 10
364.6790075775916
 20
137.4131051246088
 30
0.0
 10
364.712046454509
 20
137.3612837589995
 30
0.0
 10
364.9231748360662
 20
137.0353233630763
 30
0.0
 10
365.3492237473684
 20
136.4638603067059
 30
0.0
 10
365.9489075509898
 20
135.7167639642512
 30
0.0
 10
366.5713907665197
 20
135.0266880361733
 30
0.0
 10
367.2043538499867
 20
134.3878321743182
 30
0.0
 10
367.8506119727334
 20
133.7923609456854
 30
0.0
 10
368.5063898042833
 20
133.2384603107763
 30
0.0
 10
369.1638236116013
 20
132.7285347263348
 30
0.0
 10
369.8168592287557
 20
132.2632391245424
 30
0.0
 10
370.4271822519682
 20
131.8641450788602
 30
0.0
 10
370.9892867410125
 20
131.5259027066566
 30
0.0
 10
371.5033444834195
 20
131.2389948282347
 30
0.0
 10
372.0207584874885
 20
130.9689220921628
 30
0.0
 10
372.5425191025781
 20
130.7156054375866
 30
0.0
 10
373.0560871790087
 20
130.483855028713
 30
0.0
 10
373.5378509091822
 20
130.2812268474146
 30
0.0
 10
373.9804205005234
 20
130.1069443104112
 30
0.0
 10
374.3757958730552
 20
129.9601750658838
 30
0.0
 10
374.704943623501
 20
129.8438493128627
 30
0.0
 10
374.9331027863619
 20
129.7657638499858
 30
0.0
 10
375.0473429461504
 20
129.7270925877122
 30
0.0
 10
375.0845533372885
 20
129.7145042402685
 30
0.0
  0
SPLINE
  5
16E
330
1F
100
AcDbEntity
  8
1
  6
Continuous
 62
    30
370
    13
100
AcDbSpline
210
0.0
220
0.0
230
1.0
 70
     8
 71
     3
 72
    58
 73
    54
 74
     0
 42
0.000000001
 43
0.0000000001
 40
0.0
 40
0.0
 40
0.0
 40
0.0
 40
0.0624999999999998
 40
0.0624999999999998
 40
0.1249999999999996
 40
0.1249999999999996
 40
0.1874999999999994
 40
0.1874999999999994
 40
0.2499999999999993
 40
0.2499999999999993
 40
0.2656249999999992
 40
0.2656249999999992
 40
0.2812499999999991
 40
0.2812499999999991
 40
0.3124999999999987
 40
0.3124999999999987
 40
0.3749999999999983
 40
0.3749999999999983
 40
0.4374999999999978
 40
0.4374999999999978
 40
0.4687499999999977
 40
0.4687499999999977
 40
0.4999999999999975
 40
0.4999999999999975
 40
0.5624999999999977
 40
0.5624999999999977
 40
0.624999999999998
 40
0.624999999999998
 40
0.640624999999998
 40
0.648437499999998
 40
0.648437499999998
 40
0.656249999999998
 40
0.656249999999998
 40
0.6874999999999984
 40
0.6874999999999984
 40
0.75
 40
0.75
 40
0.7812500000000012
 40
0.7812500000000012
 40
0.7968750000000017
 40
0.8046875000000016
 40
0.8046875000000016
 40
0.8125000000000014
 40
0.8125000000000014
 40
0.8750000000000007
 40
0.8750000000000007
 40
0.9375
 40
0.9375
 40
0.96875
 40
0.96875
 40
0.9843750000000003
 40
0.9843750000000003
 40
1.0
 40
1.0
 40
1.0
 40
1.0
 10
367.1638948357411
 20
139.0863882001991
 30
0.0
 10
367.2780862840163
 20
138.8385592877406
 30
0.0
 10
367.3976344462267
 20
138.5941878927921
 30
0.0
 10
367.6477308948534
 20
138.1126872086691
 30
0.0
 10
367.7782788894961
 20
137.8755573924051
 30
0.0
 10
368.0507575454581
 20
137.4089544611605
 30
0.0
 10
368.1926878777962
 20
137.1794806057149
 30
0.0
 10
368.4884195209378
 20
136.7287112331986
 30
0.0
 10
368.6422205606796
 20
136.5074146833172
 30
0.0
 10
368.842268446044
 20
136.2363147929795
 30
0.0
 10
368.8826681434716
 20
136.1823712272326
 30
0.0
 10
368.964258387699
 20
136.075048756544
 30
0.0
 10
369.0054560536026
 20
136.0216629508004
 30
0.0
 10
369.1296965554441
 20
135.8630671527693
 30
0.0
 10
369.2135621752248
 20
135.7591859252879
 30
0.0
 10
369.4681342273759
 20
135.4532057334558
 30
0.0
 10
369.6418246685035
 20
135.256768104313
 30
0.0
 10
369.9962354346662
 20
134.8796608728746
 30
0.0
 10
370.1769618191891
 20
134.6989916845874
 30
0.0
 10
370.4523745082554
 20
134.4403646814693
 30
0.0
 10
370.544922264542
 20
134.3561957909327
 30
0.0
 10
370.7311348292826
 20
134.1921743131995
 30
0.0
 10
370.8238045399122
 20
134.1131962573632
 30
0.0
 10
371.0999854878432
 20
133.8851010360926
 30
0.0
 10
371.2816829050349
 20
133.7448269260657
 30
0.0
 10
371.6371817080201
 20
133.4863804838844
 30
0.0
 10
371.8109917820405
 20
133.3682079270044
 30
0.0
 10
372.0210708575904
 20
133.233301914996
 30
0.0
 10
372.0835531521325
 20
133.1937903929932
 30
0.0
 10
372.1451508519894
 20
133.1556898218457
 30
0.0
 10
372.1860109068854
 20
133.130599669433
 30
0.0
 10
372.206333268996
 20
133.1182131121505
 30
0.0
 10
372.3069677938788
 20
133.0573127858462
 30
0.0
 10
372.3847102470302
 20
133.0116710695699
 30
0.0
 10
372.6093124077668
 20
132.8830638208505
 30
0.0
 10
372.7475651409459
 20
132.8083860049159
 30
0.0
 10
372.9361475280724
 20
132.7098537676139
 30
0.0
 10
372.9958715300489
 20
132.6792646971148
 30
0.0
 10
373.0805073395458
 20
132.6364441773416
 30
0.0
 10
373.1215870931438
 20
132.6158004109809
 30
0.0
 10
373.1607574409817
 20
132.5962532079415
 30
0.0
 10
373.1864403961248
 20
132.5834599939587
 30
0.0
 10
373.1990770572917
 20
132.57717729771
 30
0.0
 10
373.3106089754139
 20
132.5217961183006
 30
0.0
 10
373.3934952182884
 20
132.4810854051389
 30
0.0
 10
373.5271275698671
 20
132.4128494174078
 30
0.0
 10
373.5778785537993
 20
132.3853318859621
 30
0.0
 10
373.6292001970213
 20
132.3525125288342
 30
0.0
 10
373.6421627410747
 20
132.3429963780399
 30
0.0
 10
373.6551929481874
 20
132.3308088335619
 30
0.0
 10
373.6584563128299
 20
132.327103756486
 30
0.0
 10
373.66280589185
 20
132.3204140137217
 30
0.0
 10
373.663894835741
 20
132.3174268491366
 30
0.0
 10
373.6638948357411
 20
132.3147963248209
 30
0.0
  0
SPLINE
  5
16F
330
1F
100
AcDbEntity
  8
1
  6
Continuous
 62
    30
370
    13
100
AcDbSpline
210
0.0
220
0.0
230
1.0
 70
     8
 71
     3
 72
    56
 73
    52
 74
     0
 42
0.000000001
 43
0.0000000001
 40
0.0
 40
0.0
 40
0.0
 40
0.0
 40
0.0624999999999973
 40
0.0624999999999973
 40
0.1249999999999945
 40
0.1249999999999945
 40
0.1562499999999935
 40
0.1562499999999935
 40
0.171874999999993
 40
0.171874999999993
 40
0.1874999999999925
 40
0.1874999999999925
 40
0.2499999999999905
 40
0.2499999999999905
 40
0.3124999999999884
 40
0.3124999999999884
 40
0.3281249999999881
 40
0.3281249999999881
 40
0.3437499999999878
 40
0.3437499999999878
 40
0.374999999999988
 40
0.374999999999988
 40
0.4374999999999878
 40
0.4374999999999878
 40
0.4687499999999878
 40
0.484374999999988
 40
0.484374999999988
 40
0.4999999999999882
 40
0.4999999999999882
 40
0.5624999999999897
 40
0.5624999999999897
 40
0.6249999999999911
 40
0.6249999999999911
 40
0.6562499999999917
 40
0.6562499999999917
 40
0.6718749999999919
 40
0.6718749999999919
 40
0.6874999999999921
 40
0.6874999999999921
 40
0.7499999999999936
 40
0.7499999999999936
 40
0.812499999999995
 40
0.812499999999995
 40
0.8749999999999964
 40
0.8749999999999964
 40
0.8906249999999969
 40
0.8906249999999969
 40
0.9062499999999973
 40
0.9374999999999981
 40
0.9374999999999981
 40
1.0
 40
1.0
 40
1.0
 40
1.0
 10
373.6638948357411
 20
163.3671358533027
 30
0.0
 10
373.6638948357411
 20
163.356629338226
 30
0.0
 10
373.6465914261177
 20
163.3406118725936
 30
0.0
 10
373.5790654717315
 20
163.2972900123716
 30
0.0
 10
373.5288332981475
 20
163.2699840302716
 30
0.0
 10
373.4289122214544
 20
163.2189170694474
 30
0.0
 10
373.3914988872219
 20
163.2001953715617
 30
0.0
 10
373.3291387484037
 20
163.1692153744168
 30
0.0
 10
373.3072798801076
 20
163.1583891663584
 30
0.0
 10
373.261827018446
 20
163.1358794412584
 30
0.0
 10
373.2381995519395
 20
163.124179214892
 30
0.0
 10
373.1156698949225
 20
163.0633463952076
 30
0.0
 10
373.0036264359622
 20
163.0072637780982
 30
0.0
 10
372.7537499033825
 20
162.8768462348548
 30
0.0
 10
372.615905304377
 20
162.8025130194634
 30
0.0
 10
372.428436262574
 20
162.6953278604286
 30
0.0
 10
372.3901830210942
 20
162.6731744415346
 30
0.0
 10
372.3121773452763
 20
162.6273510495323
 30
0.0
 10
372.2726065375927
 20
162.6037869193674
 30
0.0
 10
372.1526107384875
 20
162.5312765571445
 30
0.0
 10
372.0707670149528
 20
162.4804320196957
 30
0.0
 10
371.8204294132325
 20
162.3199920292543
 30
0.0
 10
371.6471449381989
 20
162.2024884435216
 30
0.0
 10
371.3801912265519
 20
162.0088614623681
 30
0.0
 10
371.2449509810131
 20
161.9077056292316
 30
0.0
 10
371.1074974884324
 20
161.7997506063017
 30
0.0
 10
371.015415460142
 20
161.7262384005051
 30
0.0
 10
370.9691309367821
 20
161.6886943119623
 30
0.0
 10
370.7369166215078
 20
161.4972148645577
 30
0.0
 10
370.5521510129008
 20
161.334903167834
 30
0.0
 10
370.1867757255761
 20
160.9924988831472
 30
0.0
 10
370.0061572117321
 20
160.8124075743199
 30
0.0
 10
369.7395178070075
 20
160.5293077155006
 30
0.0
 10
369.6513491655608
 20
160.4327806387001
 30
0.0
 10
369.5202844463486
 20
160.2847951147444
 30
0.0
 10
369.4767940916062
 20
160.2349341136911
 30
0.0
 10
369.3902277124145
 20
160.134154631361
 30
0.0
 10
369.3471407465981
 20
160.083220988997
 30
0.0
 10
369.1337304996269
 20
159.8270819059032
 30
0.0
 10
368.9687000968833
 20
159.616572515854
 30
0.0
 10
368.6498135712524
 20
159.1851728253703
 30
0.0
 10
368.495956060486
 20
158.9642815021414
 30
0.0
 10
368.1991968571258
 20
158.512780163893
 30
0.0
 10
368.0562945016674
 20
158.282169370082
 30
0.0
 10
367.8844003888739
 20
157.9881683008476
 30
0.0
 10
367.8503464027791
 20
157.9290593312789
 30
0.0
 10
367.7830186902303
 20
157.8104686017673
 30
0.0
 10
367.6831652825323
 20
157.6319697759795
 30
0.0
 10
367.5866795966435
 20
157.4516617934049
 30
0.0
 10
367.398087611941
 20
157.0887026896585
 30
0.0
 10
367.2781947041007
 20
156.8436081937441
 30
0.0
 10
367.1638948357411
 20
156.5955439779246
 30
0.0
  0
SPLINE
  5
170
330
1F
100
AcDbEntity
  8
1
  6
Continuous
 62
    30
370
    13
100
AcDbSpline
210
0.0
220
0.0
230
1.0
 70
     8
 71
     3
 72
    38
 73
    34
 74
     0
 42
0.000000001
 43
0.0000000001
 40
0.0
 40
0.0
 40
0.0
 40
0.0
 40
0.0627470657059453
 40
0.0627470657059453
 40
0.1254941314118906
 40
0.1254941314118906
 40
0.1882411971178359
 40
0.1882411971178359
 40
0.2196147299708079
 40
0.2196147299708079
 40
0.25098826282378
 40
0.25098826282378
 40
0.282361795676752
 40
0.282361795676752
 40
0.313735328529724
 40
0.313735328529724
 40
0.3764823942356685
 40
0.3764823942356685
 40
0.4392294599416129
 40
0.4392294599416129
 40
0.5019765256475573
 40
0.5019765256475573
 40
0.53335005850053
 40
0.53335005850053
 40
0.5647235913535027
 40
0.5647235913535027
 40
0.6274706570594467
 40
0.6274706570594467
 40
0.752964788471335
 40
0.752964788471335
 40
0.8784589198832232
 40
0.8784589198832232
 40
1.0
 40
1.0
 40
1.0
 40
1.0
 10
373.6638948357411
 20
136.5162144361557
 30
0.0
 10
373.6638948357411
 20
136.5573246383749
 30
0.0
 10
373.658058172821
 20
136.6049045191667
 30
0.0
 10
373.6360630941484
 20
136.7118740145386
 30
0.0
 10
373.6199007127879
 20
136.7712664886133
 30
0.0
 10
373.5782608966234
 20
136.9010120409972
 30
0.0
 10
373.5527809464232
 20
136.9713669746102
 30
0.0
 10
373.5081510017814
 20
137.0846352470006
 30
0.0
 10
373.4922043730499
 20
137.1236820739339
 30
0.0
 10
373.4582503305039
 20
137.2042913974799
 30
0.0
 10
373.4402172029401
 20
137.245910360612
 30
0.0
 10
373.402339619535
 20
137.3312069485804
 30
0.0
 10
373.3824665462469
 20
137.3749499532476
 30
0.0
 10
373.3411671365569
 20
137.4640750726855
 30
0.0
 10
373.3197292760509
 20
137.5094851181831
 30
0.0
 10
373.2532136227426
 20
137.6481141138678
 30
0.0
 10
373.2059394287401
 20
137.7437269948661
 30
0.0
 10
373.106232675252
 20
137.9407147960102
 30
0.0
 10
373.0537982682496
 20
138.042091242436
 30
0.0
 10
372.9443086271378
 20
138.2501251163086
 30
0.0
 10
372.8872521920384
 20
138.3567835466386
 30
0.0
 10
372.7985189130422
 20
138.5204479937555
 30
0.0
 10
372.7684155895845
 20
138.5756163226071
 30
0.0
 10
372.7072025225518
 20
138.687140072995
 30
0.0
 10
372.6760539416387
 20
138.7435651599255
 30
0.0
 10
372.5815363584868
 20
138.9138886426317
 30
0.0
 10
372.517067908009
 20
139.0288919474126
 30
0.0
 10
372.319782157831
 20
139.3778836570232
 30
0.0
 10
372.1831072925717
 20
139.6158358026806
 30
0.0
 10
371.9013174083744
 20
140.1008699978961
 30
0.0
 10
371.7561914959388
 20
140.3479600825314
 30
0.0
 10
371.4634006512509
 20
140.8424203467934
 30
0.0
 10
371.3159543776156
 20
141.0895404783923
 30
0.0
 10
371.1655025974015
 20
141.3402192223297
 30
0.0
  0
SPLINE
  5
171
330
1F
100
AcDbEntity
  8
1
  6
Continuous
 62
    30
370
    13
100
AcDbSpline
210
0.0
220
0.0
230
1.0
 70
     8
 71
     3
 72
    38
 73
    34
 74
     0
 42
0.000000001
 43
0.0000000001
 40
0.0
 40
0.0
 40
0.0
 40
0.0
 40
0.1213757338127488
 40
0.1213757338127488
 40
0.246893486125213
 40
0.246893486125213
 40
0.3724112384376775
 40
0.3724112384376775
 40
0.4351701145939092
 40
0.4351701145939092
 40
0.4665495526720256
 40
0.4665495526720256
 40
0.4979289907501419
 40
0.4979289907501419
 40
0.5606878669063738
 40
0.5606878669063738
 40
0.6234467430626056
 40
0.6234467430626056
 40
0.6862056192188374
 40
0.6862056192188374
 40
0.7175850572969534
 40
0.7175850572969534
 40
0.7489644953750694
 40
0.7489644953750694
 40
0.7803439334531852
 40
0.7803439334531852
 40
0.8117233715313011
 40
0.8117233715313011
 40
0.874482247687534
 40
0.874482247687534
 40
0.9372411238437671
 40
0.9372411238437671
 40
1.0
 40
1.0
 40
1.0
 40
1.0
 10
371.1662014303262
 20
154.3428773429997
 30
0.0
 10
371.3164109653759
 20
154.59315694578
 30
0.0
 10
371.4636236949352
 20
154.8398885037606
 30
0.0
 10
371.7561914959388
 20
155.3339720955922
 30
0.0
 10
371.9013174083744
 20
155.5810621802276
 30
0.0
 10
372.1831072925718
 20
156.0660963754431
 30
0.0
 10
372.319782157831
 20
156.3040485211005
 30
0.0
 10
372.517067908009
 20
156.6530402307111
 30
0.0
 10
372.5815363584869
 20
156.768043535492
 30
0.0
 10
372.6760539416388
 20
156.9383670181982
 30
0.0
 10
372.7072025225519
 20
156.9947921051286
 30
0.0
 10
372.7684155895846
 20
157.1063158555165
 30
0.0
 10
372.7985189130423
 20
157.1614841843682
 30
0.0
 10
372.8872521920384
 20
157.325148631485
 30
0.0
 10
372.9443086271379
 20
157.4318070618151
 30
0.0
 10
373.0537982682497
 20
157.6398409356876
 30
0.0
 10
373.106232675252
 20
157.7412173821134
 30
0.0
 10
373.2059394287401
 20
157.9382051832576
 30
0.0
 10
373.2532136227426
 20
158.0338180642559
 30
0.0
 10
373.3197292760509
 20
158.1724470599405
 30
0.0
 10
373.3411671365569
 20
158.2178571054381
 30
0.0
 10
373.382466546247
 20
158.3069822248761
 30
0.0
 10
373.402339619535
 20
158.3507252295432
 30
0.0
 10
373.4402172029402
 20
158.4360218175116
 30
0.0
 10
373.458250330504
 20
158.4776407806438
 30
0.0
 10
373.49220437305
 20
158.5582501041898
 30
0.0
 10
373.5081510017814
 20
158.5972969311231
 30
0.0
 10
373.5527809464232
 20
158.7105652035135
 30
0.0
 10
373.5782608966235
 20
158.7809201371265
 30
0.0
 10
373.6199007127879
 20
158.9106656895104
 30
0.0
 10
373.6360630941484
 20
158.9700581635851
 30
0.0
 10
373.6580581728211
 20
159.077027658957
 30
0.0
 10
373.6638948357411
 20
159.1246075397488
 30
0.0
 10
373.6638948357411
 20
159.165717741968
 30
0.0
  0
SPLINE
  5
172
330
1F
100
AcDbEntity
  8
1
  6
Continuous
 62
    30
370
    13
100
AcDbSpline
210
0.0
220
0.0
230
1.0
 70
     8
 71
     3
 72
    56
 73
    52
 74
     0
 42
0.000000001
 43
0.0000000001
 40
0.0
 40
0.0
 40
0.0
 40
0.0
 40
0.0624999999999976
 40
0.0624999999999976
 40
0.1249999999999951
 40
0.1249999999999951
 40
0.1562499999999943
 40
0.1562499999999943
 40
0.1718749999999939
 40
0.1718749999999939
 40
0.1874999999999935
 40
0.1874999999999935
 40
0.249999999999992
 40
0.249999999999992
 40
0.3124999999999904
 40
0.3124999999999904
 40
0.3281249999999902
 40
0.3281249999999902
 40
0.34374999999999
 40
0.34374999999999
 40
0.3749999999999901
 40
0.3749999999999901
 40
0.4374999999999907
 40
0.4374999999999907
 40
0.4687499999999909
 40
0.4843749999999912
 40
0.4843749999999912
 40
0.4999999999999915
 40
0.4999999999999915
 40
0.5624999999999929
 40
0.5624999999999929
 40
0.6249999999999943
 40
0.6249999999999943
 40
0.6562499999999949
 40
0.6562499999999949
 40
0.6718749999999951
 40
0.6718749999999951
 40
0.6874999999999954
 40
0.6874999999999954
 40
0.7499999999999971
 40
0.7499999999999971
 40
0.8124999999999988
 40
0.8124999999999988
 40
0.8750000000000004
 40
0.8750000000000004
 40
0.8906250000000004
 40
0.8906250000000004
 40
0.9062500000000006
 40
0.9375000000000006
 40
0.9375000000000006
 40
1.0
 40
1.0
 40
1.0
 40
1.0
 10
386.6638948357411
 20
132.314796324821
 30
0.0
 10
386.6638948357411
 20
132.3253028398977
 30
0.0
 10
386.6811982453645
 20
132.34132030553
 30
0.0
 10
386.7487241997507
 20
132.384642165752
 30
0.0
 10
386.7989563733347
 20
132.411948147852
 30
0.0
 10
386.8988774500278
 20
132.4630151086763
 30
0.0
 10
386.9362907842602
 20
132.481736806562
 30
0.0
 10
386.9986509230785
 20
132.5127168037069
 30
0.0
 10
387.0205097913746
 20
132.5235430117652
 30
0.0
 10
387.0659626530362
 20
132.5460527368653
 30
0.0
 10
387.0895901195427
 20
132.5577529632317
 30
0.0
 10
387.2121197765597
 20
132.6185857829161
 30
0.0
 10
387.3241632355199
 20
132.6746684000255
 30
0.0
 10
387.5740397680997
 20
132.8050859432689
 30
0.0
 10
387.7118843671052
 20
132.8794191586602
 30
0.0
 10
387.8993534089082
 20
132.9866043176951
 30
0.0
 10
387.937606650388
 20
133.0087577365891
 30
0.0
 10
388.0156123262059
 20
133.0545811285913
 30
0.0
 10
388.0551831338895
 20
133.0781452587563
 30
0.0
 10
388.1751789329946
 20
133.1506556209792
 30
0.0
 10
388.2570226565294
 20
133.201500158428
 30
0.0
 10
388.5073602582496
 20
133.3619401488694
 30
0.0
 10
388.6806447332833
 20
133.4794437346021
 30
0.0
 10
388.9475984449303
 20
133.6730707157556
 30
0.0
 10
389.082838690469
 20
133.7742265488921
 30
0.0
 10
389.2202921830498
 20
133.882181571822
 30
0.0
 10
389.3123742113402
 20
133.9556937776185
 30
0.0
 10
389.3586587347001
 20
133.9932378661614
 30
0.0
 10
389.5908730499743
 20
134.1847173135659
 30
0.0
 10
389.7756386585814
 20
134.3470290102897
 30
0.0
 10
390.1410139459061
 20
134.6894332949765
 30
0.0
 10
390.32163245975
 20
134.8695246038037
 30
0.0
 10
390.5882718644747
 20
135.1526244626231
 30
0.0
 10
390.6764405059214
 20
135.2491515394235
 30
0.0
 10
390.8075052251336
 20
135.3971370633793
 30
0.0
 10
390.8509955798759
 20
135.4469980644326
 30
0.0
 10
390.9375619590676
 20
135.5477775467627
 30
0.0
 10
390.9806489248841
 20
135.5987111891266
 30
0.0
 10
391.1940591718553
 20
135.8548502722205
 30
0.0
 10
391.3590895745988
 20
136.0653596622697
 30
0.0
 10
391.6779761002298
 20
136.4967593527534
 30
0.0
 10
391.8318336109962
 20
136.7176506759823
 30
0.0
 10
392.1285928143564
 20
137.1691520142306
 30
0.0
 10
392.2714951698148
 20
137.3997628080417
 30
0.0
 10
392.4433892826083
 20
137.6937638772761
 30
0.0
 10
392.477443268703
 20
137.7528728468447
 30
0.0
 10
392.5447709812518
 20
137.8714635763563
 30
0.0
 10
392.6446243889499
 20
138.0499624021441
 30
0.0
 10
392.7411100748387
 20
138.2302703847188
 30
0.0
 10
392.9297020595411
 20
138.5932294884651
 30
0.0
 10
393.0495949673815
 20
138.8383239843795
 30
0.0
 10
393.1638948357411
 20
139.0863882001991
 30
0.0
  0
SPLINE
  5
173
330
1F
100
AcDbEntity
  8
1
  6
Continuous
 62
    30
370
    13
100
AcDbSpline
210
0.0
220
0.0
230
1.0
 70
     8
 71
     3
 72
    58
 73
    54
 74
     0
 42
0.000000001
 43
0.0000000001
 40
0.0
 40
0.0
 40
0.0
 40
0.0
 40
0.0624999999999997
 40
0.0624999999999997
 40
0.1249999999999995
 40
0.1249999999999995
 40
0.1874999999999992
 40
0.1874999999999992
 40
0.2499999999999989
 40
0.2499999999999989
 40
0.2656249999999989
 40
0.2656249999999989
 40
0.2812499999999988
 40
0.2812499999999988
 40
0.3124999999999985
 40
0.3124999999999985
 40
0.3749999999999977
 40
0.3749999999999977
 40
0.4374999999999968
 40
0.4374999999999968
 40
0.4687499999999965
 40
0.4687499999999965
 40
0.4999999999999962
 40
0.4999999999999962
 40
0.5624999999999961
 40
0.5624999999999961
 40
0.6249999999999959
 40
0.6249999999999959
 40
0.6406249999999959
 40
0.6484374999999956
 40
0.6484374999999956
 40
0.6562499999999953
 40
0.6562499999999953
 40
0.6874999999999942
 40
0.6874999999999942
 40
0.7499999999999928
 40
0.7499999999999928
 40
0.7812499999999923
 40
0.7812499999999923
 40
0.7968749999999922
 40
0.8046874999999925
 40
0.8046874999999925
 40
0.8124999999999928
 40
0.8124999999999928
 40
0.874999999999995
 40
0.874999999999995
 40
0.9374999999999971
 40
0.9374999999999971
 40
0.9687499999999986
 40
0.9687499999999986
 40
0.9843749999999998
 40
0.9843749999999998
 40
1.0
 40
1.0
 40
1.0
 40
1.0
 10
393.1638948357411
 20
156.5955439779246
 30
0.0
 10
393.0497033874658
 20
156.8433728903831
 30
0.0
 10
392.9301552252555
 20
157.0877442853315
 30
0.0
 10
392.6800587766288
 20
157.5692449694545
 30
0.0
 10
392.5495107819861
 20
157.8063747857186
 30
0.0
 10
392.2770321260241
 20
158.2729777169632
 30
0.0
 10
392.135101793686
 20
158.5024515724088
 30
0.0
 10
391.8393701505444
 20
158.9532209449251
 30
0.0
 10
391.6855691108025
 20
159.1745174948065
 30
0.0
 10
391.4855212254381
 20
159.4456173851442
 30
0.0
 10
391.4451215280105
 20
159.4995609508911
 30
0.0
 10
391.3635312837831
 20
159.6068834215797
 30
0.0
 10
391.3223336178796
 20
159.6602692273233
 30
0.0
 10
391.198093116038
 20
159.8188650253544
 30
0.0
 10
391.1142274962573
 20
159.9227462528358
 30
0.0
 10
390.8596554441062
 20
160.2287264446679
 30
0.0
 10
390.6859650029785
 20
160.4251640738107
 30
0.0
 10
390.331554236816
 20
160.802271305249
 30
0.0
 10
390.150827852293
 20
160.9829404935362
 30
0.0
 10
389.8754151632268
 20
161.2415674966544
 30
0.0
 10
389.7828674069402
 20
161.325736387191
 30
0.0
 10
389.5966548421995
 20
161.4897578649242
 30
0.0
 10
389.5039851315699
 20
161.5687359207605
 30
0.0
 10
389.2278041836389
 20
161.7968311420311
 30
0.0
 10
389.0461067664472
 20
161.937105252058
 30
0.0
 10
388.690607963462
 20
162.1955516942393
 30
0.0
 10
388.5167978894416
 20
162.3137242511193
 30
0.0
 10
388.3067188138917
 20
162.4486302631277
 30
0.0
 10
388.2442365193496
 20
162.4881417851304
 30
0.0
 10
388.1826388194927
 20
162.5262423562779
 30
0.0
 10
388.1417787645967
 20
162.5513325086906
 30
0.0
 10
388.1214564024861
 20
162.5637190659731
 30
0.0
 10
388.0208218776034
 20
162.6246193922775
 30
0.0
 10
387.9430794244519
 20
162.6702611085537
 30
0.0
 10
387.7184772637153
 20
162.7988683572732
 30
0.0
 10
387.5802245305362
 20
162.8735461732078
 30
0.0
 10
387.3916421434097
 20
162.9720784105098
 30
0.0
 10
387.3319181414332
 20
163.0026674810088
 30
0.0
 10
387.2472823319363
 20
163.045488000782
 30
0.0
 10
387.2062025783383
 20
163.0661317671427
 30
0.0
 10
387.1670322305004
 20
163.0856789701822
 30
0.0
 10
387.1413492753573
 20
163.0984721841649
 30
0.0
 10
387.1287126141904
 20
163.1047548804136
 30
0.0
 10
387.0171806960683
 20
163.1601360598231
 30
0.0
 10
386.9342944531937
 20
163.2008467729847
 30
0.0
 10
386.800662101615
 20
163.2690827607158
 30
0.0
 10
386.7499111176828
 20
163.2966002921616
 30
0.0
 10
386.6985894744608
 20
163.3294196492895
 30
0.0
 10
386.6856269304074
 20
163.3389358000838
 30
0.0
 10
386.6725967232948
 20
163.3511233445618
 30
0.0
 10
386.6693333586522
 20
163.3548284216376
 30
0.0
 10
386.6649837796322
 20
163.361518164402
 30
0.0
 10
386.6638948357411
 20
163.364505328987
 30
0.0
 10
386.6638948357411
 20
163.3671358533027
 30
0.0
  0
SPLINE
  5
174
330
1F
100
AcDbEntity
  8
1
  6
Continuous
 62
    30
370
    13
100
AcDbSpline
210
0.0
220
0.0
230
1.0
 70
     8
 71
     3
 72
    38
 73
    34
 74
     0
 42
0.000000001
 43
0.0000000001
 40
0.0
 40
0.0
 40
0.0
 40
0.0
 40
0.1213757338567052
 40
0.1213757338567052
 40
0.2468934861628902
 40
0.2468934861628902
 40
0.3724112384690755
 40
0.3724112384690755
 40
0.4351701146221676
 40
0.4351701146221676
 40
0.4665495526987145
 40
0.4665495526987145
 40
0.497928990775261
 40
0.497928990775261
 40
0.5606878669283532
 40
0.5606878669283532
 40
0.6234467430814453
 40
0.6234467430814453
 40
0.6862056192345375
 40
0.6862056192345375
 40
0.7175850573110834
 40
0.7175850573110834
 40
0.7489644953876294
 40
0.7489644953876294
 40
0.7803439334641753
 40
0.7803439334641753
 40
0.8117233715407213
 40
0.8117233715407213
 40
0.8744822476938141
 40
0.8744822476938141
 40
0.9372411238469072
 40
0.9372411238469072
 40
1.0
 40
1.0
 40
1.0
 40
1.0
 10
389.1615882413419
 20
141.3390548354335
 30
0.0
 10
389.0113787062276
 20
141.0887752325471
 30
0.0
 10
388.8641659766063
 20
140.8420436744632
 30
0.0
 10
388.5715981755433
 20
140.3479600825314
 30
0.0
 10
388.4264722631077
 20
140.1008699978961
 30
0.0
 10
388.1446823789104
 20
139.6158358026806
 30
0.0
 10
388.0080075136512
 20
139.3778836570231
 30
0.0
 10
387.8107217634731
 20
139.0288919474126
 30
0.0
 10
387.7462533129953
 20
138.9138886426317
 30
0.0
 10
387.6517357298434
 20
138.7435651599255
 30
0.0
 10
387.6205871489303
 20
138.687140072995
 30
0.0
 10
387.5593740818976
 20
138.5756163226071
 30
0.0
 10
387.5292707584399
 20
138.5204479937555
 30
0.0
 10
387.4405374794437
 20
138.3567835466386
 30
0.0
 10
387.3834810443443
 20
138.2501251163085
 30
0.0
 10
387.2739914032325
 20
138.042091242436
 30
0.0
 10
387.2215569962302
 20
137.9407147960102
 30
0.0
 10
387.1218502427421
 20
137.7437269948661
 30
0.0
 10
387.0745760487395
 20
137.6481141138678
 30
0.0
 10
387.0080603954312
 20
137.5094851181831
 30
0.0
 10
386.9866225349252
 20
137.4640750726855
 30
0.0
 10
386.9453231252352
 20
137.3749499532476
 30
0.0
 10
386.9254500519471
 20
137.3312069485804
 30
0.0
 10
386.887572468542
 20
137.245910360612
 30
0.0
 10
386.8695393409782
 20
137.2042913974799
 30
0.0
 10
386.8355852984322
 20
137.1236820739338
 30
0.0
 10
386.8196386697008
 20
137.0846352470005
 30
0.0
 10
386.775008725059
 20
136.9713669746102
 30
0.0
 10
386.7495287748587
 20
136.9010120409972
 30
0.0
 10
386.7078889586942
 20
136.7712664886133
 30
0.0
 10
386.6917265773337
 20
136.7118740145385
 30
0.0
 10
386.6697314986611
 20
136.6049045191667
 30
0.0
 10
386.6638948357411
 20
136.5573246383748
 30
0.0
 10
386.6638948357411
 20
136.5162144361557
 30
0.0
  0
SPLINE
  5
175
330
1F
100
AcDbEntity
  8
1
  6
Continuous
 62
    30
370
    13
100
AcDbSpline
210
0.0
220
0.0
230
1.0
 70
     8
 71
     3
 72
    38
 73
    34
 74
     0
 42
0.000000001
 43
0.0000000001
 40
0.0
 40
0.0
 40
0.0
 40
0.0
 40
0.0627470657059312
 40
0.0627470657059312
 40
0.1254941314118623
 40
0.1254941314118623
 40
0.1882411971177935
 40
0.1882411971177935
 40
0.2196147299707585
 40
0.2196147299707585
 40
0.2509882628237236
 40
0.2509882628237236
 40
0.2823617956766886
 40
0.2823617956766886
 40
0.3137353285296536
 40
0.3137353285296536
 40
0.3764823942355841
 40
0.3764823942355841
 40
0.4392294599415145
 40
0.4392294599415145
 40
0.5019765256474449
 40
0.5019765256474449
 40
0.5333500585004106
 40
0.5333500585004106
 40
0.5647235913533762
 40
0.5647235913533762
 40
0.6274706570593066
 40
0.6274706570593066
 40
0.7529647884711667
 40
0.7529647884711667
 40
0.878458919883027
 40
0.878458919883027
 40
1.0
 40
1.0
 40
1.0
 40
1.0
 10
386.6638948357411
 20
159.1657177419679
 30
0.0
 10
386.6638948357411
 20
159.1246075397488
 30
0.0
 10
386.6697314986611
 20
159.077027658957
 30
0.0
 10
386.6917265773337
 20
158.9700581635851
 30
0.0
 10
386.7078889586942
 20
158.9106656895103
 30
0.0
 10
386.7495287748587
 20
158.7809201371265
 30
0.0
 10
386.775008725059
 20
158.7105652035135
 30
0.0
 10
386.8196386697008
 20
158.5972969311231
 30
0.0
 10
386.8355852984322
 20
158.5582501041898
 30
0.0
 10
386.8695393409782
 20
158.4776407806438
 30
0.0
 10
386.887572468542
 20
158.4360218175116
 30
0.0
 10
386.9254500519471
 20
158.3507252295432
 30
0.0
 10
386.9453231252352
 20
158.3069822248761
 30
0.0
 10
386.9866225349252
 20
158.2178571054381
 30
0.0
 10
387.0080603954312
 20
158.1724470599405
 30
0.0
 10
387.0745760487395
 20
158.0338180642559
 30
0.0
 10
387.1218502427421
 20
157.9382051832576
 30
0.0
 10
387.2215569962302
 20
157.7412173821134
 30
0.0
 10
387.2739914032325
 20
157.6398409356876
 30
0.0
 10
387.3834810443443
 20
157.4318070618151
 30
0.0
 10
387.4405374794437
 20
157.325148631485
 30
0.0
 10
387.5292707584399
 20
157.1614841843682
 30
0.0
 10
387.5593740818976
 20
157.1063158555165
 30
0.0
 10
387.6205871489303
 20
156.9947921051286
 30
0.0
 10
387.6517357298434
 20
156.9383670181981
 30
0.0
 10
387.7462533129953
 20
156.768043535492
 30
0.0
 10
387.8107217634731
 20
156.6530402307111
 30
0.0
 10
388.0080075136512
 20
156.3040485211005
 30
0.0
 10
388.1446823789104
 20
156.0660963754431
 30
0.0
 10
388.4264722631077
 20
155.5810621802275
 30
0.0
 10
388.5715981755433
 20
155.3339720955922
 30
0.0
 10
388.8643890202315
 20
154.8395118313298
 30
0.0
 10
389.0118352938671
 20
154.5923916997304
 30
0.0
 10
389.1622870740814
 20
154.3417129557926
 30
0.0
  0
ENDSEC
  0
SECTION
  2
OBJECTS
  0
DICTIONARY
  5
C
330
0
100
AcDbDictionary
281
     1
  3
ACAD_DETAILVIEWSTYLE
350
1CA
  3
ACAD_GROUP
350
D
  3
ACAD_LAYOUT
350
1A
  3
ACAD_MATERIAL
350
43
  3
ACAD_MLEADERSTYLE
350
6B
  3
ACAD_MLINESTYLE
350
17
  3
ACAD_PLOTSETTINGS
350
19
  3
ACAD_PLOTSTYLENAME
350
E
  3
ACAD_SCALELIST
350
47
  3
ACAD_SECTIONVIEWSTYLE
350
1CB
  3
ACAD_TABLESTYLE
350
69
  3
ACAD_VISUALSTYLE
350
2A
  3
ACDB_RECOMPOSE_DATA
350
1C7
  3
AcDbVariableDictionary
350
187
  0
DICTIONARY
  5
185
330
8
100
AcDbDictionary
280
     1
281
     1
  3
ACAD_XREC_ROUNDTRIP
360
186
  0
DICTIONARY
  5
1CA
102
{ACAD_REACTORS
330
C
102
}
330
C
100
AcDbDictionary
281
     1
  0
DICTIONARY
  5
D
102
{ACAD_REACTORS
330
C
102
}
330
C
100
AcDbDictionary
281
     1
  0
DICTIONARY
  5
1A
102
{ACAD_REACTORS
330
C
102
}
330
C
100
AcDbDictionary
281
     1
  3
Layout1
350
1E
  3
Layout2
350
26
  3
Model
350
22
  0
DICTIONARY
  5
43
102
{ACAD_REACTORS
330
C
102
}
330
C
100
AcDbDictionary
281
     1
  3
ByBlock
350
45
  3
ByLayer
350
44
  3
Global
350
46
  0
DICTIONARY
  5
6B
102
{ACAD_REACTORS
330
C
102
}
330
C
100
AcDbDictionary
281
     1
  3
Standard
350
6C
  0
DICTIONARY
  5
17
102
{ACAD_REACTORS
330
C
102
}
330
C
100
AcDbDictionary
281
     1
  3
Standard
350
18
  0
DICTIONARY
  5
19
102
{ACAD_REACTORS
330
C
102
}
330
C
100
AcDbDictionary
281
     1
  0
ACDBDICTIONARYWDFLT
  5
E
102
{ACAD_REACTORS
330
C
102
}
330
C
100
AcDbDictionary
281
     1
  3
Normal
350
F
100
AcDbDictionaryWithDefault
340
F
  0
DICTIONARY
  5
47
102
{ACAD_REACTORS
330
C
102
}
330
C
100
AcDbDictionary
281
     1
  3
A0
350
48
  3
A1
350
49
  3
A2
350
4A
  3
A3
350
4B
  3
A4
350
4C
  3
A5
350
4D
  3
A6
350
4E
  3
A7
350
4F
  3
A8
350
50
  3
A9
350
51
  3
B0
350
52
  3
B1
350
53
  3
B2
350
54
  3
B3
350
55
  3
B4
350
56
  3
B5
350
57
  3
B6
350
58
  3
B7
350
59
  3
B8
350
5A
  3
B9
350
5B
  3
C0
350
5C
  3
C1
350
5D
  3
C2
350
5E
  3
C3
350
5F
  3
C4
350
60
  3
C5
350
61
  3
C6
350
62
  3
C7
350
63
  3
C8
350
64
  3
C9
350
65
  3
D0
350
66
  3
D1
350
67
  3
D2
350
68
  0
DICTIONARY
  5
1CB
102
{ACAD_REACTORS
330
C
102
}
330
C
100
AcDbDictionary
281
     1
  0
DICTIONARY
  5
69
102
{ACAD_REACTORS
330
C
102
}
330
C
100
AcDbDictionary
281
     1
  3
Standard
350
6A
  0
DICTIONARY
  5
2A
102
{ACAD_REACTORS
330
C
102
}
330
C
100
AcDbDictionary
281
     1
  3
2dWireframe
350
2F
  3
Basic
350
32
  3
Brighten
350
36
  3
ColorChange
350
3A
  3
Conceptual
350
34
  3
Dim
350
35
  3
EdgeColorOff
350
3D
  3
Facepattern
350
39
  3
Flat
350
2B
  3
FlatWithEdges
350
2C
  3
Gouraud
350
2D
  3
GouraudWithEdges
350
2E
  3
Hidden
350
31
  3
JitterOff
350
3B
  3
Linepattern
350
38
  3
OverhangOff
350
3C
  3
Realistic
350
33
  3
Shaded
350
42
  3
Shaded with edges
350
41
  3
Shades of Gray
350
3E
  3
Sketchy
350
3F
  3
Thicken
350
37
  3
Wireframe
350
30
  3
X-Ray
350
40
  0
XRECORD
  5
1C7
102
{ACAD_REACTORS
330
C
102
}
330
C
100
AcDbXrecord
280
     1
 90
        1
330
6A
  0
DICTIONARY
  5
187
102
{ACAD_REACTORS
330
C
102
}
330
C
100
AcDbDictionary
281
     1
  3
CANNOSCALE
350
188
  3
CMLEADERSTYLE
350
1C9
  3
CTABLESTYLE
350
1C8
  3
MSLTSCALE
350
189
  3
XCLIPFRAME
350
18A
  0
XRECORD
  5
186
102
{ACAD_REACTORS
330
185
102
}
330
185
100
AcDbXrecord
280
     1
102
VTR_0.000_0.000_1.000_1.000_VISUALSTYLE
340
2F
102
VTR_0.000_0.000_1.000_1.000_GRIDDISPLAY
 70
     3
102
VTR_0.000_0.000_1.000_1.000_GRIDMAJOR
 70
     5
102
VTR_0.000_0.000_1.000_1.000_DEFAULTLIGHTING
280
     1
102
VTR_0.000_0.000_1.000_1.000_DEFAULTLIGHTINGTYPE
 70
     1
102
VTR_0.000_0.000_1.000_1.000_BRIGHTNESS
141
0.0
102
VTR_0.000_0.000_1.000_1.000_CONTRAST
142
0.0
102
VTR_0.000_0.000_0.500_1.000_VISUALSTYLE
340
2F
102
VTR_0.000_0.000_0.500_1.000_GRIDDISPLAY
 70
     3
102
VTR_0.000_0.000_0.500_1.000_GRIDMAJOR
 70
     5
102
VTR_0.000_0.000_0.500_1.000_DEFAULTLIGHTING
280
     1
102
VTR_0.000_0.000_0.500_1.000_DEFAULTLIGHTINGTYPE
 70
     1
102
VTR_0.000_0.000_0.500_1.000_BRIGHTNESS
141
0.0
102
VTR_0.000_0.000_0.500_1.000_CONTRAST
142
0.0
102
VTR_0.500_0.000_1.000_1.000_VISUALSTYLE
340
2F
102
VTR_0.500_0.000_1.000_1.000_GRIDDISPLAY
 70
     3
102
VTR_0.500_0.000_1.000_1.000_GRIDMAJOR
 70
     5
102
VTR_0.500_0.000_1.000_1.000_DEFAULTLIGHTING
280
     1
102
VTR_0.500_0.000_1.000_1.000_DEFAULTLIGHTINGTYPE
 70
     1
102
VTR_0.500_0.000_1.000_1.000_BRIGHTNESS
141
0.0
102
VTR_0.500_0.000_1.000_1.000_CONTRAST
142
0.0
102
VTR_0.000_0.500_1.000_1.000_VISUALSTYLE
340
2F
102
VTR_0.000_0.500_1.000_1.000_GRIDDISPLAY
 70
     3
102
VTR_0.000_0.500_1.000_1.000_GRIDMAJOR
 70
     5
102
VTR_0.000_0.500_1.000_1.000_DEFAULTLIGHTING
280
     1
102
VTR_0.000_0.500_1.000_1.000_DEFAULTLIGHTINGTYPE
 70
     1
102
VTR_0.000_0.500_1.000_1.000_BRIGHTNESS
141
0.0
102
VTR_0.000_0.500_1.000_1.000_CONTRAST
142
0.0
102
VTR_0.000_0.000_1.000_0.500_VISUALSTYLE
340
2F
102
VTR_0.000_0.000_1.000_0.500_GRIDDISPLAY
 70
     3
102
VTR_0.000_0.000_1.000_0.500_GRIDMAJOR
 70
     5
102
VTR_0.000_0.000_1.000_0.500_DEFAULTLIGHTING
280
     1
102
VTR_0.000_0.000_1.000_0.500_DEFAULTLIGHTINGTYPE
 70
     1
102
VTR_0.000_0.000_1.000_0.500_BRIGHTNESS
141
0.0
102
VTR_0.000_0.000_1.000_0.500_CONTRAST
142
0.0
102
VTR_0.000_0.500_0.500_1.000_VISUALSTYLE
340
2F
102
VTR_0.000_0.500_0.500_1.000_GRIDDISPLAY
 70
     3
102
VTR_0.000_0.500_0.500_1.000_GRIDMAJOR
 70
     5
102
VTR_0.000_0.500_0.500_1.000_DEFAULTLIGHTING
280
     1
102
VTR_0.000_0.500_0.500_1.000_DEFAULTLIGHTINGTYPE
 70
     1
102
VTR_0.000_0.500_0.500_1.000_BRIGHTNESS
141
0.0
102
VTR_0.000_0.500_0.500_1.000_CONTRAST
142
0.0
102
VTR_0.000_0.000_0.500_0.500_VISUALSTYLE
340
2F
102
VTR_0.000_0.000_0.500_0.500_GRIDDISPLAY
 70
     3
102
VTR_0.000_0.000_0.500_0.500_GRIDMAJOR
 70
     5
102
VTR_0.000_0.000_0.500_0.500_DEFAULTLIGHTING
280
     1
102
VTR_0.000_0.000_0.500_0.500_DEFAULTLIGHTINGTYPE
 70
     1
102
VTR_0.000_0.000_0.500_0.500_BRIGHTNESS
141
0.0
102
VTR_0.000_0.000_0.500_0.500_CONTRAST
142
0.0
102
VTR_0.500_0.000_1.000_0.500_VISUALSTYLE
340
2F
102
VTR_0.500_0.000_1.000_0.500_GRIDDISPLAY
 70
     3
102
VTR_0.500_0.000_1.000_0.500_GRIDMAJOR
 70
     5
102
VTR_0.500_0.000_1.000_0.500_DEFAULTLIGHTING
280
     1
102
VTR_0.500_0.000_1.000_0.500_DEFAULTLIGHTINGTYPE
 70
     1
102
VTR_0.500_0.000_1.000_0.500_BRIGHTNESS
141
0.0
102
VTR_0.500_0.000_1.000_0.500_CONTRAST
142
0.0
102
VTR_0.500_0.500_1.000_1.000_VISUALSTYLE
340
2F
102
VTR_0.500_0.500_1.000_1.000_GRIDDISPLAY
 70
     3
102
VTR_0.500_0.500_1.000_1.000_GRIDMAJOR
 70
     5
102
VTR_0.500_0.500_1.000_1.000_DEFAULTLIGHTING
280
     1
102
VTR_0.500_0.500_1.000_1.000_DEFAULTLIGHTINGTYPE
 70
     1
102
VTR_0.500_0.500_1.000_1.000_BRIGHTNESS
141
0.0
102
VTR_0.500_0.500_1.000_1.000_CONTRAST
142
0.0
102
VTR_0.000_0.500_0.333_1.000_VISUALSTYLE
340
2F
102
VTR_0.000_0.500_0.333_1.000_GRIDDISPLAY
 70
     3
102
VTR_0.000_0.500_0.333_1.000_GRIDMAJOR
 70
     5
102
VTR_0.000_0.500_0.333_1.000_DEFAULTLIGHTING
280
     1
102
VTR_0.000_0.500_0.333_1.000_DEFAULTLIGHTINGTYPE
 70
     1
102
VTR_0.000_0.500_0.333_1.000_BRIGHTNESS
141
0.0
102
VTR_0.000_0.500_0.333_1.000_CONTRAST
142
0.0
102
VTR_0.000_0.000_0.333_0.500_VISUALSTYLE
340
2F
102
VTR_0.000_0.000_0.333_0.500_GRIDDISPLAY
 70
     3
102
VTR_0.000_0.000_0.333_0.500_GRIDMAJOR
 70
     5
102
VTR_0.000_0.000_0.333_0.500_DEFAULTLIGHTING
280
     1
102
VTR_0.000_0.000_0.333_0.500_DEFAULTLIGHTINGTYPE
 70
     1
102
VTR_0.000_0.000_0.333_0.500_BRIGHTNESS
141
0.0
102
VTR_0.000_0.000_0.333_0.500_CONTRAST
142
0.0
102
VTR_0.333_0.500_0.667_1.000_VISUALSTYLE
340
2F
102
VTR_0.333_0.500_0.667_1.000_GRIDDISPLAY
 70
     3
102
VTR_0.333_0.500_0.667_1.000_GRIDMAJOR
 70
     5
102
VTR_0.333_0.500_0.667_1.000_DEFAULTLIGHTING
280
     1
102
VTR_0.333_0.500_0.667_1.000_DEFAULTLIGHTINGTYPE
 70
     1
102
VTR_0.333_0.500_0.667_1.000_BRIGHTNESS
141
0.0
102
VTR_0.333_0.500_0.667_1.000_CONTRAST
142
0.0
102
VTR_0.333_0.000_0.667_0.500_VISUALSTYLE
340
2F
102
VTR_0.333_0.000_0.667_0.500_GRIDDISPLAY
 70
     3
102
VTR_0.333_0.000_0.667_0.500_GRIDMAJOR
 70
     5
102
VTR_0.333_0.000_0.667_0.500_DEFAULTLIGHTING
280
     1
102
VTR_0.333_0.000_0.667_0.500_DEFAULTLIGHTINGTYPE
 70
     1
102
VTR_0.333_0.000_0.667_0.500_BRIGHTNESS
141
0.0
102
VTR_0.333_0.000_0.667_0.500_CONTRAST
142
0.0
102
VTR_0.667_0.500_1.000_1.000_VISUALSTYLE
340
2F
102
VTR_0.667_0.500_1.000_1.000_GRIDDISPLAY
 70
     3
102
VTR_0.667_0.500_1.000_1.000_GRIDMAJOR
 70
     5
102
VTR_0.667_0.500_1.000_1.000_DEFAULTLIGHTING
280
     1
102
VTR_0.667_0.500_1.000_1.000_DEFAULTLIGHTINGTYPE
 70
     1
102
VTR_0.667_0.500_1.000_1.000_BRIGHTNESS
141
0.0
102
VTR_0.667_0.500_1.000_1.000_CONTRAST
142
0.0
102
VTR_0.667_0.000_1.000_0.500_VISUALSTYLE
340
2F
102
VTR_0.667_0.000_1.000_0.500_GRIDDISPLAY
 70
     3
102
VTR_0.667_0.000_1.000_0.500_GRIDMAJOR
 70
     5
102
VTR_0.667_0.000_1.000_0.500_DEFAULTLIGHTING
280
     1
102
VTR_0.667_0.000_1.000_0.500_DEFAULTLIGHTINGTYPE
 70
     1
102
VTR_0.667_0.000_1.000_0.500_BRIGHTNESS
141
0.0
102
VTR_0.667_0.000_1.000_0.500_CONTRAST
142
0.0
  0
LAYOUT
  5
1E
102
{ACAD_REACTORS
330
1A
102
}
330
1A
100
AcDbPlotSettings
  1

  2
none_device
  4

  6

 40
0.0
 41
0.0
 42
0.0
 43
0.0
 44
0.0
 45
0.0
 46
0.0
 47
0.0
 48
0.0
 49
0.0
140
0.0
141
0.0
142
1.0
143
1.0
 70
   688
 72
     0
 73
     0
 74
     5
  7

 75
    16
 76
     0
 77
     2
 78
   300
147
1.0
148
0.0
149
0.0
100
AcDbLayout
  1
Layout1
 70
     1
 71
     1
 10
-0.5
 20
-0.5
 11
5.0
 21
5.0
 12
0.0
 22
0.0
 32
0.0
 14
-0.5
 24
-0.5
 34
-0.5
 15
5.0
 25
5.0
 35
5.0
146
0.0
 13
0.0
 23
0.0
 33
0.0
 16
1.0
 26
0.0
 36
0.0
 17
0.0
 27
1.0
 37
0.0
 76
     0
330
1B
  0
LAYOUT
  5
26
102
{ACAD_REACTORS
330
1A
102
}
330
1A
100
AcDbPlotSettings
  1

  2
none_device
  4

  6

 40
0.0
 41
0.0
 42
0.0
 43
0.0
 44
0.0
 45
0.0
 46
0.0
 47
0.0
 48
0.0
 49
0.0
140
0.0
141
0.0
142
1.0
143
1.0
 70
   688
 72
     0
 73
     0
 74
     5
  7

 75
    16
 76
     0
 77
     2
 78
   300
147
1.0
148
0.0
149
0.0
100
AcDbLayout
  1
Layout2
 70
     1
 71
     2
 10
0.0
 20
0.0
 11
0.0
 21
0.0
 12
0.0
 22
0.0
 32
0.0
 14
0.0
 24
0.0
 34
0.0
 15
0.0
 25
0.0
 35
0.0
146
0.0
 13
0.0
 23
0.0
 33
0.0
 16
1.0
 26
0.0
 36
0.0
 17
0.0
 27
1.0
 37
0.0
 76
     0
330
23
  0
LAYOUT
  5
22
102
{ACAD_REACTORS
330
1A
102
}
330
1A
100
AcDbPlotSettings
  1

  2
none_device
  4
Letter_(8.50_x_11.00_Inches)
  6

 40
6.35
 41
6.35
 42
6.350005
 43
6.350005
 44
215.9
 45
279.4
 46
0.0
 47
0.0
 48
0.0
 49
0.0
140
0.0
141
0.0
142
1.0
143
1.0
 70
  1712
 72
     0
 73
     0
 74
     0
  7

 75
     0
 76
     0
 77
     2
 78
   300
147
1.0
148
0.0
149
0.0
100
AcDbLayout
  1
Model
 70
     1
 71
     0
 10
-0.5
 20
-0.5
 11
5.0
 21
5.0
 12
0.0
 22
0.0
 32
0.0
 14
-0.5
 24
-0.5
 34
-0.5
 15
5.0
 25
5.0
 35
5.0
146
0.0
 13
0.0
 23
0.0
 33
0.0
 16
1.0
 26
0.0
 36
0.0
 17
0.0
 27
1.0
 37
0.0
 76
     0
330
1F
331
29
  0
MATERIAL
  5
45
102
{ACAD_REACTORS
330
43
102
}
102
{ACAD_XDICTIONARY
360
1BD
102
}
330
43
100
AcDbMaterial
  1
ByBlock
  0
MATERIAL
  5
44
102
{ACAD_REACTORS
330
43
102
}
102
{ACAD_XDICTIONARY
360
1BB
102
}
330
43
100
AcDbMaterial
  1
ByLayer
  0
MATERIAL
  5
46
102
{ACAD_REACTORS
330
43
102
}
102
{ACAD_XDICTIONARY
360
1BF
102
}
330
43
100
AcDbMaterial
  1
Global
  0
MLEADERSTYLE
  5
6C
102
{ACAD_REACTORS
330
6B
102
}
102
{ACAD_XDICTIONARY
360
1C5
102
}
330
6B
100
AcDbMLeaderStyle
170
     2
171
     1
172
     0
 90
        2
 40
0.0
 41
0.0
173
     1
 91
-1056964608
340
14
 92
       -2
290
     1
 42
0.09
291
     1
 43
0.36
  3
Standard
341
0
 44
0.18
300

342
11
174
     1
178
     6
175
     1
176
     0
 93
-1056964608
 45
0.18
292
     0
297
     0
 46
0.18
343
0
 94
-1056964608
 47
1.0
 49
1.0
140
1.0
293
     1
141
0.0
294
     1
177
     0
142
1.0
295
     0
296
     0
143
0.125
1001
ACAD_MLEADERVER
1070
     2
  0
MLINESTYLE
  5
18
102
{ACAD_REACTORS
330
17
102
}
330
17
100
AcDbMlineStyle
  2
Standard
 70
     0
  3

 62
   256
 51
90.0
 52
90.0
 71
     2
 49
0.5
 62
   256
  6
BYLAYER
 49
-0.5
 62
   256
  6
BYLAYER
  0
ACDBPLACEHOLDER
  5
F
102
{ACAD_REACTORS
330
E
102
}
330
E
  0
SCALE
  5
48
102
{ACAD_REACTORS
330
47
102
}
330
47
100
AcDbScale
 70
     0
300
1:1
140
1.0
141
1.0
290
     1
  0
SCALE
  5
49
102
{ACAD_REACTORS
330
47
102
}
330
47
100
AcDbScale
 70
     0
300
1:2
140
1.0
141
2.0
290
     0
  0
SCALE
  5
4A
102
{ACAD_REACTORS
330
47
102
}
330
47
100
AcDbScale
 70
     0
300
1:4
140
1.0
141
4.0
290
     0
  0
SCALE
  5
4B
102
{ACAD_REACTORS
330
47
102
}
330
47
100
AcDbScale
 70
     0
300
1:5
140
1.0
141
5.0
290
     0
  0
SCALE
  5
4C
102
{ACAD_REACTORS
330
47
102
}
330
47
100
AcDbScale
 70
     0
300
1:8
140
1.0
141
8.0
290
     0
  0
SCALE
  5
4D
102
{ACAD_REACTORS
330
47
102
}
330
47
100
AcDbScale
 70
     0
300
1:10
140
1.0
141
10.0
290
     0
  0
SCALE
  5
4E
102
{ACAD_REACTORS
330
47
102
}
330
47
100
AcDbScale
 70
     0
300
1:16
140
1.0
141
16.0
290
     0
  0
SCALE
  5
4F
102
{ACAD_REACTORS
330
47
102
}
330
47
100
AcDbScale
 70
     0
300
1:20
140
1.0
141
20.0
290
     0
  0
SCALE
  5
50
102
{ACAD_REACTORS
330
47
102
}
330
47
100
AcDbScale
 70
     0
300
1:30
140
1.0
141
30.0
290
     0
  0
SCALE
  5
51
102
{ACAD_REACTORS
330
47
102
}
330
47
100
AcDbScale
 70
     0
300
1:40
140
1.0
141
40.0
290
     0
  0
SCALE
  5
52
102
{ACAD_REACTORS
330
47
102
}
330
47
100
AcDbScale
 70
     0
300
1:50
140
1.0
141
50.0
290
     0
  0
SCALE
  5
53
102
{ACAD_REACTORS
330
47
102
}
330
47
100
AcDbScale
 70
     0
300
1:100
140
1.0
141
100.0
290
     0
  0
SCALE
  5
54
102
{ACAD_REACTORS
330
47
102
}
330
47
100
AcDbScale
 70
     0
300
2:1
140
2.0
141
1.0
290
     0
  0
SCALE
  5
55
102
{ACAD_REACTORS
330
47
102
}
330
47
100
AcDbScale
 70
     0
300
4:1
140
4.0
141
1.0
290
     0
  0
SCALE
  5
56
102
{ACAD_REACTORS
330
47
102
}
330
47
100
AcDbScale
 70
     0
300
8:1
140
8.0
141
1.0
290
     0
  0
SCALE
  5
57
102
{ACAD_REACTORS
330
47
102
}
330
47
100
AcDbScale
 70
     0
300
10:1
140
10.0
141
1.0
290
     0
  0
SCALE
  5
58
102
{ACAD_REACTORS
330
47
102
}
330
47
100
AcDbScale
 70
     0
300
100:1
140
100.0
141
1.0
290
     0
  0
SCALE
  5
59
102
{ACAD_REACTORS
330
47
102
}
330
47
100
AcDbScale
 70
     0
300
1/128" = 1'-0"
140
0.007812
141
12.0
290
     0
  0
SCALE
  5
5A
102
{ACAD_REACTORS
330
47
102
}
330
47
100
AcDbScale
 70
     0
300
1/64" = 1'-0"
140
0.015625
141
12.0
290
     0
  0
SCALE
  5
5B
102
{ACAD_REACTORS
330
47
102
}
330
47
100
AcDbScale
 70
     0
300
1/32" = 1'-0"
140
0.03125
141
12.0
290
     0
  0
SCALE
  5
5C
102
{ACAD_REACTORS
330
47
102
}
330
47
100
AcDbScale
 70
     0
300
1/16" = 1'-0"
140
0.0625
141
12.0
290
     0
  0
SCALE
  5
5D
102
{ACAD_REACTORS
330
47
102
}
330
47
100
AcDbScale
 70
     0
300
3/32" = 1'-0"
140
0.09375
141
12.0
290
     0
  0
SCALE
  5
5E
102
{ACAD_REACTORS
330
47
102
}
330
47
100
AcDbScale
 70
     0
300
1/8" = 1'-0"
140
0.125
141
12.0
290
     0
  0
SCALE
  5
5F
102
{ACAD_REACTORS
330
47
102
}
330
47
100
AcDbScale
 70
     0
300
3/16" = 1'-0"
140
0.1875
141
12.0
290
     0
  0
SCALE
  5
60
102
{ACAD_REACTORS
330
47
102
}
330
47
100
AcDbScale
 70
     0
300
1/4" = 1'-0"
140
0.25
141
12.0
290
     0
  0
SCALE
  5
61
102
{ACAD_REACTORS
330
47
102
}
330
47
100
AcDbScale
 70
     0
300
3/8" = 1'-0"
140
0.375
141
12.0
290
     0
  0
SCALE
  5
62
102
{ACAD_REACTORS
330
47
102
}
330
47
100
AcDbScale
 70
     0
300
1/2" = 1'-0"
140
0.5
141
12.0
290
     0
  0
SCALE
  5
63
102
{ACAD_REACTORS
330
47
102
}
330
47
100
AcDbScale
 70
     0
300
3/4" = 1'-0"
140
0.75
141
12.0
290
     0
  0
SCALE
  5
64
102
{ACAD_REACTORS
330
47
102
}
330
47
100
AcDbScale
 70
     0
300
1" = 1'-0"
140
1.0
141
12.0
290
     0
  0
SCALE
  5
65
102
{ACAD_REACTORS
330
47
102
}
330
47
100
AcDbScale
 70
     0
300
1-1/2" = 1'-0"
140
1.5
141
12.0
290
     0
  0
SCALE
  5
66
102
{ACAD_REACTORS
330
47
102
}
330
47
100
AcDbScale
 70
     0
300
3" = 1'-0"
140
3.0
141
12.0
290
     0
  0
SCALE
  5
67
102
{ACAD_REACTORS
330
47
102
}
330
47
100
AcDbScale
 70
     0
300
6" = 1'-0"
140
6.0
141
12.0
290
     0
  0
SCALE
  5
68
102
{ACAD_REACTORS
330
47
102
}
330
47
100
AcDbScale
 70
     0
300
1'-0" = 1'-0"
140
12.0
141
12.0
290
     0
  0
TABLESTYLE
  5
6A
102
{ACAD_REACTORS
330
69
102
}
102
{ACAD_XDICTIONARY
360
1C1
102
}
330
69
100
AcDbTableStyle
  3
Standard
 70
     0
 71
     0
 40
0.06
 41
0.06
280
     0
281
     0
  7
Standard
140
0.18
170
     2
 62
     0
 63
   257
283
     0
274
    -2
284
     1
 64
     0
275
    -2
285
     1
 65
     0
276
    -2
286
     1
 66
     0
277
    -2
287
     1
 67
     0
278
    -2
288
     1
 68
     0
279
    -2
289
     1
 69
     0
  7
Standard
140
0.25
170
     5
 62
     0
 63
   257
283
     0
274
    -2
284
     1
 64
     0
275
    -2
285
     1
 65
     0
276
    -2
286
     1
 66
     0
277
    -2
287
     1
 67
     0
278
    -2
288
     1
 68
     0
279
    -2
289
     1
 69
     0
  7
Standard
140
0.18
170
     5
 62
     0
 63
   257
283
     0
274
    -2
284
     1
 64
     0
275
    -2
285
     1
 65
     0
276
    -2
286
     1
 66
     0
277
    -2
287
     1
 67
     0
278
    -2
288
     1
 68
     0
279
    -2
289
     1
 69
     0
  0
VISUALSTYLE
  5
2F
102
{ACAD_REACTORS
330
2A
102
}
102
{ACAD_XDICTIONARY
360
193
102
}
330
2A
100
AcDbVisualStyle
  2
2dWireframe
 70
     4
 71
     0
 72
     2
 73
     0
 90
        0
 40
0.6
 41
30.0
 62
     5
 63
     7
421
 16777215
 74
     1
 91
        4
 64
     7
 65
   257
 75
     1
175
     1
 42
1.0
 92
        0
 66
   257
 43
1.0
 76
     1
 77
     6
 78
     2
 67
     7
 79
     5
170
     0
171
     0
290
     0
174
     0
 93
        1
 44
0.0
173
     0
291
     0
 45
0.0
1001
ACAD
1000
AcDbSavedByObjectVersion
1070
     0
  0
VISUALSTYLE
  5
32
102
{ACAD_REACTORS
330
2A
102
}
102
{ACAD_XDICTIONARY
360
199
102
}
330
2A
100
AcDbVisualStyle
  2
Basic
 70
     7
 71
     1
 72
     0
 73
     1
 90
        0
 40
0.6
 41
30.0
 62
     5
 63
     7
421
 16777215
 74
     0
 91
        4
 64
     7
 65
   257
 75
     1
175
     1
 42
1.0
 92
        8
 66
     7
 43
1.0
 76
     1
 77
     6
 78
     2
 67
     7
 79
     5
170
     0
171
     0
290
     0
174
     0
 93
        1
 44
0.0
173
     0
291
     1
 45
0.0
1001
ACAD
1000
AcDbSavedByObjectVersion
1070
     0
  0
VISUALSTYLE
  5
36
102
{ACAD_REACTORS
330
2A
102
}
102
{ACAD_XDICTIONARY
360
1A1
102
}
330
2A
100
AcDbVisualStyle
  2
Brighten
 70
    12
 71
     2
 72
     2
 73
     0
 90
        0
 40
0.6
 41
30.0
 62
     5
 63
     7
421
 16777215
 74
     1
 91
        4
 64
     7
 65
   257
 75
     1
175
     1
 42
1.0
 92
        8
 66
     7
 43
1.0
 76
     1
 77
     6
 78
     2
 67
     7
 79
     5
170
     0
171
     0
290
     0
174
     0
 93
        1
 44
50.0
173
     0
291
     1
 45
0.0
1001
ACAD
1000
AcDbSavedByObjectVersion
1070
     0
  0
VISUALSTYLE
  5
3A
102
{ACAD_REACTORS
330
2A
102
}
102
{ACAD_XDICTIONARY
360
1A9
102
}
330
2A
100
AcDbVisualStyle
  2
ColorChange
 70
    16
 71
     2
 72
     2
 73
     3
 90
        0
 40
0.6
 41
30.0
 62
     5
 63
     8
421
  8421504
 74
     1
 91
        4
 64
     7
 65
   257
 75
     1
175
     1
 42
1.0
 92
        8
 66
     8
424
  8421504
 43
1.0
 76
     1
 77
     6
 78
     2
 67
     7
 79
     5
170
     0
171
     0
290
     0
174
     0
 93
        1
 44
0.0
173
     0
291
     1
 45
0.0
1001
ACAD
1000
AcDbSavedByObjectVersion
1070
     0
  0
VISUALSTYLE
  5
34
102
{ACAD_REACTORS
330
2A
102
}
102
{ACAD_XDICTIONARY
360
19D
102
}
330
2A
100
AcDbVisualStyle
  2
Conceptual
 70
     9
 71
     3
 72
     2
 73
     0
 90
        0
 40
0.6
 41
30.0
 62
     5
 63
     7
421
 16777215
 74
     2
 91
        2
 64
     7
 65
   257
 75
     1
175
     1
 42
179.0
 92
        8
 66
     7
 43
1.0
 76
     1
 77
     6
 78
     2
 67
     7
 79
     3
170
     0
171
     0
290
     0
174
     0
 93
        1
 44
0.0
173
     0
291
     0
 45
0.0
1001
ACAD
1000
AcDbSavedByObjectVersion
1070
     0
  0
VISUALSTYLE
  5
35
102
{ACAD_REACTORS
330
2A
102
}
102
{ACAD_XDICTIONARY
360
19F
102
}
330
2A
100
AcDbVisualStyle
  2
Dim
 70
    11
 71
     2
 72
     2
 73
     0
 90
        0
 40
0.6
 41
30.0
 62
     5
 63
     7
421
 16777215
 74
     1
 91
        4
 64
     7
 65
   257
 75
     1
175
     1
 42
1.0
 92
        8
 66
     7
 43
1.0
 76
     1
 77
     6
 78
     2
 67
     7
 79
     5
170
     0
171
     0
290
     0
174
     0
 93
        1
 44
-50.0
173
     0
291
     1
 45
0.0
1001
ACAD
1000
AcDbSavedByObjectVersion
1070
     0
  0
VISUALSTYLE
  5
3D
102
{ACAD_REACTORS
330
2A
102
}
102
{ACAD_XDICTIONARY
360
1AF
102
}
330
2A
100
AcDbVisualStyle
  2
EdgeColorOff
 70
    22
 71
     2
 72
     2
 73
     0
 90
        0
 40
0.6
 41
30.0
 62
     5
 63
     7
421
 16777215
 74
     1
 91
        4
 64
     7
 65
   257
 75
     1
175
     1
 42
1.0
 92
        8
 66
     7
 43
1.0
 76
     1
 77
     6
 78
     2
 67
     7
 79
     5
170
     0
171
     0
290
     0
174
     0
 93
        1
 44
0.0
173
     0
291
     1
 45
0.0
1001
ACAD
1000
AcDbSavedByObjectVersion
1070
     0
  0
VISUALSTYLE
  5
39
102
{ACAD_REACTORS
330
2A
102
}
102
{ACAD_XDICTIONARY
360
1A7
102
}
330
2A
100
AcDbVisualStyle
  2
Facepattern
 70
    15
 71
     2
 72
     2
 73
     0
 90
        0
 40
0.6
 41
30.0
 62
     5
 63
     7
421
 16777215
 74
     1
 91
        4
 64
     7
 65
   257
 75
     1
175
     1
 42
1.0
 92
        8
 66
     7
 43
1.0
 76
     1
 77
     6
 78
     2
 67
     7
 79
     5
170
     0
171
     0
290
     0
174
     0
 93
        1
 44
0.0
173
     0
291
     1
 45
0.0
1001
ACAD
1000
AcDbSavedByObjectVersion
1070
     0
  0
VISUALSTYLE
  5
2B
102
{ACAD_REACTORS
330
2A
102
}
102
{ACAD_XDICTIONARY
360
18B
102
}
330
2A
100
AcDbVisualStyle
  2
Flat
 70
     0
 71
     2
 72
     1
 73
     1
 90
        2
 40
0.6
 41
30.0
 62
     5
 63
     7
421
 16777215
 74
     0
 91
        0
 64
     7
 65
   257
 75
     1
175
     1
 42
1.0
 92
        8
 66
     7
 43
1.0
 76
     1
 77
     6
 78
     2
 67
     7
 79
     5
170
     0
171
     0
290
     0
174
     0
 93
       13
 44
0.0
173
     0
291
     1
 45
0.0
1001
ACAD
1000
AcDbSavedByObjectVersion
1070
     0
  0
VISUALSTYLE
  5
2C
102
{ACAD_REACTORS
330
2A
102
}
102
{ACAD_XDICTIONARY
360
18D
102
}
330
2A
100
AcDbVisualStyle
  2
FlatWithEdges
 70
     1
 71
     2
 72
     1
 73
     1
 90
        2
 40
0.6
 41
30.0
 62
     5
 63
     7
421
 16777215
 74
     1
 91
        0
 64
     7
 65
   257
 75
     1
175
     1
 42
1.0
 92
        0
 66
   257
 43
1.0
 76
     1
 77
     6
 78
     2
 67
     7
 79
     5
170
     0
171
     0
290
     0
174
     0
 93
       13
 44
0.0
173
     0
291
     1
 45
0.0
1001
ACAD
1000
AcDbSavedByObjectVersion
1070
     0
  0
VISUALSTYLE
  5
2D
102
{ACAD_REACTORS
330
2A
102
}
102
{ACAD_XDICTIONARY
360
18F
102
}
330
2A
100
AcDbVisualStyle
  2
Gouraud
 70
     2
 71
     2
 72
     2
 73
     1
 90
        2
 40
0.6
 41
30.0
 62
     5
 63
     7
421
 16777215
 74
     0
 91
        0
 64
     7
 65
   257
 75
     1
175
     1
 42
1.0
 92
        0
 66
     7
 43
1.0
 76
     1
 77
     6
 78
     2
 67
     7
 79
     5
170
     0
171
     0
290
     0
174
     0
 93
       13
 44
0.0
173
     0
291
     1
 45
0.0
1001
ACAD
1000
AcDbSavedByObjectVersion
1070
     0
  0
VISUALSTYLE
  5
2E
102
{ACAD_REACTORS
330
2A
102
}
102
{ACAD_XDICTIONARY
360
191
102
}
330
2A
100
AcDbVisualStyle
  2
GouraudWithEdges
 70
     3
 71
     2
 72
     2
 73
     1
 90
        2
 40
0.6
 41
30.0
 62
     5
 63
     7
421
 16777215
 74
     1
 91
        0
 64
     7
 65
   257
 75
     1
175
     1
 42
1.0
 92
        0
 66
   257
 43
1.0
 76
     1
 77
     6
 78
     2
 67
     7
 79
     5
170
     0
171
     0
290
     0
174
     0
 93
       13
 44
0.0
173
     0
291
     1
 45
0.0
1001
ACAD
1000
AcDbSavedByObjectVersion
1070
     0
  0
VISUALSTYLE
  5
31
102
{ACAD_REACTORS
330
2A
102
}
102
{ACAD_XDICTIONARY
360
197
102
}
330
2A
100
AcDbVisualStyle
  2
Hidden
 70
     6
 71
     1
 72
     2
 73
     2
 90
        0
 40
0.6
 41
30.0
 62
     5
 63
     7
421
 16777215
 74
     2
 91
        2
 64
     7
 65
   257
 75
     2
175
     1
 42
40.0
 92
        0
 66
   257
 43
1.0
 76
     1
 77
     6
 78
     2
 67
     7
 79
     3
170
     0
171
     0
290
     0
174
     0
 93
        1
 44
0.0
173
     0
291
     0
 45
0.0
1001
ACAD
1000
AcDbSavedByObjectVersion
1070
     0
  0
VISUALSTYLE
  5
3B
102
{ACAD_REACTORS
330
2A
102
}
102
{ACAD_XDICTIONARY
360
1AB
102
}
330
2A
100
AcDbVisualStyle
  2
JitterOff
 70
    20
 71
     2
 72
     2
 73
     0
 90
        0
 40
0.6
 41
30.0
 62
     5
 63
     7
421
 16777215
 74
     1
 91
        4
 64
     7
 65
   257
 75
     1
175
     1
 42
1.0
 92
       10
 66
     7
 43
1.0
 76
     1
 77
     6
 78
     2
 67
     7
 79
     5
170
     0
171
     0
290
     0
174
     0
 93
        1
 44
0.0
173
     0
291
     1
 45
0.0
1001
ACAD
1000
AcDbSavedByObjectVersion
1070
     0
  0
VISUALSTYLE
  5
38
102
{ACAD_REACTORS
330
2A
102
}
102
{ACAD_XDICTIONARY
360
1A5
102
}
330
2A
100
AcDbVisualStyle
  2
Linepattern
 70
    14
 71
     2
 72
     2
 73
     0
 90
        0
 40
0.6
 41
30.0
 62
     5
 63
     7
421
 16777215
 74
     1
 91
        4
 64
     7
 65
   257
 75
     7
175
     7
 42
1.0
 92
        8
 66
     7
 43
1.0
 76
     1
 77
     6
 78
     2
 67
     7
 79
     5
170
     0
171
     0
290
     0
174
     0
 93
        1
 44
0.0
173
     0
291
     1
 45
0.0
1001
ACAD
1000
AcDbSavedByObjectVersion
1070
     0
  0
VISUALSTYLE
  5
3C
102
{ACAD_REACTORS
330
2A
102
}
102
{ACAD_XDICTIONARY
360
1AD
102
}
330
2A
100
AcDbVisualStyle
  2
OverhangOff
 70
    21
 71
     2
 72
     2
 73
     0
 90
        0
 40
0.6
 41
30.0
 62
     5
 63
     7
421
 16777215
 74
     1
 91
        4
 64
     7
 65
   257
 75
     1
175
     1
 42
1.0
 92
        9
 66
     7
 43
1.0
 76
     1
 77
     6
 78
     2
 67
     7
 79
     5
170
     0
171
     0
290
     0
174
     0
 93
        1
 44
0.0
173
     0
291
     1
 45
0.0
1001
ACAD
1000
AcDbSavedByObjectVersion
1070
     0
  0
VISUALSTYLE
  5
33
102
{ACAD_REACTORS
330
2A
102
}
102
{ACAD_XDICTIONARY
360
19B
102
}
330
2A
100
AcDbVisualStyle
  2
Realistic
 70
     8
 71
     2
 72
     3
 73
     0
 90
        2
 40
0.6
 41
30.0
 62
     5
 63
     7
421
 16777215
 74
     0
 91
        0
 64
     7
 65
   257
 75
     1
175
     1
 42
1.0
 92
        8
 66
   257
 43
1.0
 76
     1
 77
     6
 78
     2
 67
     7
 79
     3
170
     0
171
     0
290
     0
174
     0
 93
       13
 44
0.0
173
     0
291
     0
 45
0.0
1001
ACAD
1000
AcDbSavedByObjectVersion
1070
     0
  0
VISUALSTYLE
  5
42
102
{ACAD_REACTORS
330
2A
102
}
102
{ACAD_XDICTIONARY
360
1B9
102
}
330
2A
100
AcDbVisualStyle
  2
Shaded
 70
    27
 71
     2
 72
     2
 73
     1
 90
        2
 40
0.6
 41
30.0
 62
     5
 63
     7
421
 16777215
 74
     0
 91
        4
 64
     7
 65
   257
 75
     1
175
     1
 42
1.0
 92
        8
 66
   257
 43
1.0
 76
     1
 77
     6
 78
     2
 67
     8
425
  7895160
 79
     3
170
     0
171
     0
290
     0
174
     0
 93
        5
 44
0.0
173
     0
291
     0
 45
0.0
1001
ACAD
1000
AcDbSavedByObjectVersion
1070
     0
  0
VISUALSTYLE
  5
41
102
{ACAD_REACTORS
330
2A
102
}
102
{ACAD_XDICTIONARY
360
1B7
102
}
330
2A
100
AcDbVisualStyle
  2
Shaded with edges
 70
    26
 71
     2
 72
     2
 73
     1
 90
        2
 40
0.6
 41
30.0
 62
     5
 63
     7
421
 16777215
 74
     1
 91
       10
 64
     7
 65
   257
 75
     2
175
     1
 42
1.0
 92
        8
 66
   257
 43
1.0
 76
     1
 77
     6
 78
     2
 67
     7
 79
     3
170
     0
171
     0
290
     0
174
     0
 93
        5
 44
0.0
173
     0
291
     0
 45
0.0
1001
ACAD
1000
AcDbSavedByObjectVersion
1070
     0
  0
VISUALSTYLE
  5
3E
102
{ACAD_REACTORS
330
2A
102
}
102
{ACAD_XDICTIONARY
360
1B1
102
}
330
2A
100
AcDbVisualStyle
  2
Shades of Gray
 70
    23
 71
     2
 72
     2
 73
     3
 90
        0
 40
0.6
 41
30.0
 62
     5
 63
     7
421
 16777215
 74
     2
 91
        2
 64
     7
 65
     7
 75
     1
175
     1
 42
40.0
 92
        8
 66
     7
 43
1.0
 76
     1
 77
     6
 78
     2
 67
     7
 79
     3
170
     0
171
     0
290
     0
174
     0
 93
        1
 44
0.0
173
     0
291
     0
 45
0.0
1001
ACAD
1000
AcDbSavedByObjectVersion
1070
     0
  0
VISUALSTYLE
  5
3F
102
{ACAD_REACTORS
330
2A
102
}
102
{ACAD_XDICTIONARY
360
1B3
102
}
330
2A
100
AcDbVisualStyle
  2
Sketchy
 70
    24
 71
     1
 72
     2
 73
     2
 90
        0
 40
0.6
 41
30.0
 62
     5
 63
     7
421
 16777215
 74
     2
 91
        2
 64
     7
 65
     7
 75
     1
175
     1
 42
40.0
 92
       11
 66
     7
 43
1.0
 76
     1
 77
     6
 78
     2
 67
     7
 79
     6
170
     0
171
     0
290
     0
174
     0
 93
        1
 44
0.0
173
     0
291
     0
 45
0.0
1001
ACAD
1000
AcDbSavedByObjectVersion
1070
     0
  0
VISUALSTYLE
  5
37
102
{ACAD_REACTORS
330
2A
102
}
102
{ACAD_XDICTIONARY
360
1A3
102
}
330
2A
100
AcDbVisualStyle
  2
Thicken
 70
    13
 71
     2
 72
     2
 73
     0
 90
        0
 40
0.6
 41
30.0
 62
     5
 63
     7
421
 16777215
 74
     1
 91
        4
 64
     7
 65
   257
 75
     1
175
     1
 42
1.0
 92
       12
 66
     7
 43
1.0
 76
     1
 77
     6
 78
     2
 67
     7
 79
     5
170
     0
171
     0
290
     0
174
     0
 93
        1
 44
0.0
173
     0
291
     1
 45
0.0
1001
ACAD
1000
AcDbSavedByObjectVersion
1070
     0
  0
VISUALSTYLE
  5
30
102
{ACAD_REACTORS
330
2A
102
}
102
{ACAD_XDICTIONARY
360
195
102
}
330
2A
100
AcDbVisualStyle
  2
Wireframe
 70
     5
 71
     0
 72
     2
 73
     0
 90
        0
 40
0.6
 41
30.0
 62
     5
 63
     7
421
 16777215
 74
     1
 91
        4
 64
     7
 65
   257
 75
     1
175
     1
 42
1.0
 92
        0
 66
   257
 43
1.0
 76
     1
 77
     6
 78
     2
 67
     7
 79
     3
170
     0
171
     0
290
     0
174
     0
 93
        1
 44
0.0
173
     0
291
     0
 45
0.0
1001
ACAD
1000
AcDbSavedByObjectVersion
1070
     0
  0
VISUALSTYLE
  5
40
102
{ACAD_REACTORS
330
2A
102
}
102
{ACAD_XDICTIONARY
360
1B5
102
}
330
2A
100
AcDbVisualStyle
  2
X-Ray
 70
    25
 71
     2
 72
     2
 73
     1
 90
        1
 40
0.5
 41
30.0
 62
     5
 63
     7
421
 16777215
 74
     1
 91
        0
 64
     7
 65
   257
 75
     1
175
     1
 42
1.0
 92
        8
 66
     7
 43
1.0
 76
     1
 77
     6
 78
     2
 67
     7
 79
     3
170
     0
171
     0
290
     0
174
     0
 93
       13
 44
0.0
173
     0
291
     0
 45
0.0
1001
ACAD
1000
AcDbSavedByObjectVersion
1070
     0
  0
DICTIONARYVAR
  5
188
102
{ACAD_REACTORS
330
187
102
}
330
187
100
DictionaryVariables
280
     0
  1
1:1
  0
DICTIONARYVAR
  5
1C9
102
{ACAD_REACTORS
330
187
102
}
330
187
100
DictionaryVariables
280
     0
  1
Standard
  0
DICTIONARYVAR
  5
1C8
102
{ACAD_REACTORS
330
187
102
}
330
187
100
DictionaryVariables
280
     0
  1
Standard
  0
DICTIONARYVAR
  5
189
102
{ACAD_REACTORS
330
187
102
}
330
187
100
DictionaryVariables
280
     0
  1
1
  0
DICTIONARYVAR
  5
18A
102
{ACAD_REACTORS
330
187
102
}
330
187
100
DictionaryVariables
280
     0
  1
2
  0
DICTIONARY
  5
1BD
330
45
100
AcDbDictionary
280
     1
281
     1
  3
ACAD_XREC_ROUNDTRIP
360
1BE
  0
DICTIONARY
  5
1BB
330
44
100
AcDbDictionary
280
     1
281
     1
  3
ACAD_XREC_ROUNDTRIP
360
1BC
  0
DICTIONARY
  5
1BF
330
46
100
AcDbDictionary
280
     1
281
     1
  3
ACAD_XREC_ROUNDTRIP
360
1C0
  0
DICTIONARY
  5
1C5
330
6C
100
AcDbDictionary
280
     1
281
     1
  3
ACAD_XREC_ROUNDTRIP
360
1C6
  0
DICTIONARY
  5
1C1
330
6A
100
AcDbDictionary
280
     1
281
     1
  3
ACAD_ROUNDTRIP_2008_TABLESTYLE_CELLSTYLEMAP
360
1C3
  3
ACAD_XREC_ROUNDTRIP
360
1C2
  0
DICTIONARY
  5
193
330
2F
100
AcDbDictionary
280
     1
281
     1
  3
ACAD_XREC_ROUNDTRIP
360
194
  0
DICTIONARY
  5
199
330
32
100
AcDbDictionary
280
     1
281
     1
  3
ACAD_XREC_ROUNDTRIP
360
19A
  0
DICTIONARY
  5
1A1
330
36
100
AcDbDictionary
280
     1
281
     1
  3
ACAD_XREC_ROUNDTRIP
360
1A2
  0
DICTIONARY
  5
1A9
330
3A
100
AcDbDictionary
280
     1
281
     1
  3
ACAD_XREC_ROUNDTRIP
360
1AA
  0
DICTIONARY
  5
19D
330
34
100
AcDbDictionary
280
     1
281
     1
  3
ACAD_XREC_ROUNDTRIP
360
19E
  0
DICTIONARY
  5
19F
330
35
100
AcDbDictionary
280
     1
281
     1
  3
ACAD_XREC_ROUNDTRIP
360
1A0
  0
DICTIONARY
  5
1AF
330
3D
100
AcDbDictionary
280
     1
281
     1
  3
ACAD_XREC_ROUNDTRIP
360
1B0
  0
DICTIONARY
  5
1A7
330
39
100
AcDbDictionary
280
     1
281
     1
  3
ACAD_XREC_ROUNDTRIP
360
1A8
  0
DICTIONARY
  5
18B
330
2B
100
AcDbDictionary
280
     1
281
     1
  3
ACAD_XREC_ROUNDTRIP
360
18C
  0
DICTIONARY
  5
18D
330
2C
100
AcDbDictionary
280
     1
281
     1
  3
ACAD_XREC_ROUNDTRIP
360
18E
  0
DICTIONARY
  5
18F
330
2D
100
AcDbDictionary
280
     1
281
     1
  3
ACAD_XREC_ROUNDTRIP
360
190
  0
DICTIONARY
  5
191
330
2E
100
AcDbDictionary
280
     1
281
     1
  3
ACAD_XREC_ROUNDTRIP
360
192
  0
DICTIONARY
  5
197
330
31
100
AcDbDictionary
280
     1
281
     1
  3
ACAD_XREC_ROUNDTRIP
360
198
  0
DICTIONARY
  5
1AB
330
3B
100
AcDbDictionary
280
     1
281
     1
  3
ACAD_XREC_ROUNDTRIP
360
1AC
  0
DICTIONARY
  5
1A5
330
38
100
AcDbDictionary
280
     1
281
     1
  3
ACAD_XREC_ROUNDTRIP
360
1A6
  0
DICTIONARY
  5
1AD
330
3C
100
AcDbDictionary
280
     1
281
     1
  3
ACAD_XREC_ROUNDTRIP
360
1AE
  0
DICTIONARY
  5
19B
330
33
100
AcDbDictionary
280
     1
281
     1
  3
ACAD_XREC_ROUNDTRIP
360
19C
  0
DICTIONARY
  5
1B9
330
42
100
AcDbDictionary
280
     1
281
     1
  3
ACAD_XREC_ROUNDTRIP
360
1BA
  0
DICTIONARY
  5
1B7
330
41
100
AcDbDictionary
280
     1
281
     1
  3
ACAD_XREC_ROUNDTRIP
360
1B8
  0
DICTIONARY
  5
1B1
330
3E
100
AcDbDictionary
280
     1
281
     1
  3
ACAD_XREC_ROUNDTRIP
360
1B2
  0
DICTIONARY
  5
1B3
330
3F
100
AcDbDictionary
280
     1
281
     1
  3
ACAD_XREC_ROUNDTRIP
360
1B4
  0
DICTIONARY
  5
1A3
330
37
100
AcDbDictionary
280
     1
281
     1
  3
ACAD_XREC_ROUNDTRIP
360
1A4
  0
DICTIONARY
  5
195
330
30
100
AcDbDictionary
280
     1
281
     1
  3
ACAD_XREC_ROUNDTRIP
360
196
  0
DICTIONARY
  5
1B5
330
40
100
AcDbDictionary
280
     1
281
     1
  3
ACAD_XREC_ROUNDTRIP
360
1B6
  0
XRECORD
  5
1BE
102
{ACAD_REACTORS
330
1BD
102
}
330
1BD
100
AcDbXrecord
280
     1
102
MATERIAL
148
0.0
149
0.0
149
0.0
 93
        0
 94
      127
282
     0
 72
     1
 77
     1
171
     1
175
     1
179
     1
273
     0
  0
XRECORD
  5
1BC
102
{ACAD_REACTORS
330
1BB
102
}
330
1BB
100
AcDbXrecord
280
     1
102
MATERIAL
148
0.0
149
0.0
149
0.0
 93
        0
 94
      127
282
     0
 72
     1
 77
     1
171
     1
175
     1
179
     1
273
     0
  0
XRECORD
  5
1C0
102
{ACAD_REACTORS
330
1BF
102
}
330
1BF
100
AcDbXrecord
280
     1
102
MATERIAL
148
0.0
149
0.0
149
0.0
 93
        0
 94
      127
282
     0
 72
     1
 77
     1
171
     1
175
     1
179
     1
273
     0
  0
XRECORD
  5
1C6
102
{ACAD_REACTORS
330
1C5
102
}
330
1C5
100
AcDbXrecord
280
     1
102
ACAD_ROUNDTRIP_2010_MLEADER_STYLE
  0
CELLSTYLEMAP
  5
1C3
102
{ACAD_REACTORS
330
1C1
102
}
330
1C1
100
AcDbCellStyleMap
 90
        3
300
CELLSTYLE
  1
TABLEFORMAT_BEGIN
 90
        5
170
     1
 91
        0
 92
    32768
 62
   257
 93
        1
300
CONTENTFORMAT
  1
CONTENTFORMAT_BEGIN
 90
        0
 91
        0
 92
        4
 93
        0
300

 40
0.0
140
1.0
 94
        5
 62
     0
340
11
144
0.25
309
CONTENTFORMAT_END
171
     1
301
MARGIN
  1
CELLMARGIN_BEGIN
 40
0.06
 40
0.06
 40
0.06
 40
0.06
 40
0.06
 40
0.06
309
CELLMARGIN_END
 94
        6
 95
        1
302
GRIDFORMAT
  1
GRIDFORMAT_BEGIN
 90
        0
 91
        1
 62
     0
 92
       -2
340
14
 93
        0
 40
0.045
309
GRIDFORMAT_END
 95
        2
302
GRIDFORMAT
  1
GRIDFORMAT_BEGIN
 90
        0
 91
        1
 62
     0
 92
       -2
340
14
 93
        0
 40
0.045
309
GRIDFORMAT_END
 95
        4
302
GRIDFORMAT
  1
GRIDFORMAT_BEGIN
 90
        0
 91
        1
 62
     0
 92
       -2
340
14
 93
        0
 40
0.045
309
GRIDFORMAT_END
 95
        8
302
GRIDFORMAT
  1
GRIDFORMAT_BEGIN
 90
        0
 91
        1
 62
     0
 92
       -2
340
14
 93
        0
 40
0.045
309
GRIDFORMAT_END
 95
       16
302
GRIDFORMAT
  1
GRIDFORMAT_BEGIN
 90
        0
 91
        1
 62
     0
 92
       -2
340
14
 93
        0
 40
0.045
309
GRIDFORMAT_END
 95
       32
302
GRIDFORMAT
  1
GRIDFORMAT_BEGIN
 90
        0
 91
        1
 62
     0
 92
       -2
340
14
 93
        0
 40
0.045
309
GRIDFORMAT_END
309
TABLEFORMAT_END
  1
CELLSTYLE_BEGIN
 90
        1
 91
        1
300
_TITLE
309
CELLSTYLE_END
300
CELLSTYLE
  1
TABLEFORMAT_BEGIN
 90
        5
170
     1
 91
        0
 92
        0
 62
   257
 93
        1
300
CONTENTFORMAT
  1
CONTENTFORMAT_BEGIN
 90
        0
 91
        0
 92
        4
 93
        0
300

 40
0.0
140
1.0
 94
        5
 62
     0
340
11
144
0.18
309
CONTENTFORMAT_END
171
     1
301
MARGIN
  1
CELLMARGIN_BEGIN
 40
0.06
 40
0.06
 40
0.06
 40
0.06
 40
0.06
 40
0.06
309
CELLMARGIN_END
 94
        6
 95
        1
302
GRIDFORMAT
  1
GRIDFORMAT_BEGIN
 90
        0
 91
        1
 62
     0
 92
       -2
340
14
 93
        0
 40
0.045
309
GRIDFORMAT_END
 95
        2
302
GRIDFORMAT
  1
GRIDFORMAT_BEGIN
 90
        0
 91
        1
 62
     0
 92
       -2
340
14
 93
        0
 40
0.045
309
GRIDFORMAT_END
 95
        4
302
GRIDFORMAT
  1
GRIDFORMAT_BEGIN
 90
        0
 91
        1
 62
     0
 92
       -2
340
14
 93
        0
 40
0.045
309
GRIDFORMAT_END
 95
        8
302
GRIDFORMAT
  1
GRIDFORMAT_BEGIN
 90
        0
 91
        1
 62
     0
 92
       -2
340
14
 93
        0
 40
0.045
309
GRIDFORMAT_END
 95
       16
302
GRIDFORMAT
  1
GRIDFORMAT_BEGIN
 90
        0
 91
        1
 62
     0
 92
       -2
340
14
 93
        0
 40
0.045
309
GRIDFORMAT_END
 95
       32
302
GRIDFORMAT
  1
GRIDFORMAT_BEGIN
 90
        0
 91
        1
 62
     0
 92
       -2
340
14
 93
        0
 40
0.045
309
GRIDFORMAT_END
309
TABLEFORMAT_END
  1
CELLSTYLE_BEGIN
 90
        2
 91
        1
300
_HEADER
309
CELLSTYLE_END
300
CELLSTYLE
  1
TABLEFORMAT_BEGIN
 90
        5
170
     1
 91
        0
 92
        0
 62
   257
 93
        1
300
CONTENTFORMAT
  1
CONTENTFORMAT_BEGIN
 90
        0
 91
        0
 92
        4
 93
        0
300

 40
0.0
140
1.0
 94
        2
 62
     0
340
11
144
0.18
309
CONTENTFORMAT_END
171
     1
301
MARGIN
  1
CELLMARGIN_BEGIN
 40
0.06
 40
0.06
 40
0.06
 40
0.06
 40
0.06
 40
0.06
309
CELLMARGIN_END
 94
        6
 95
        1
302
GRIDFORMAT
  1
GRIDFORMAT_BEGIN
 90
        0
 91
        1
 62
     0
 92
       -2
340
14
 93
        0
 40
0.045
309
GRIDFORMAT_END
 95
        2
302
GRIDFORMAT
  1
GRIDFORMAT_BEGIN
 90
        0
 91
        1
 62
     0
 92
       -2
340
14
 93
        0
 40
0.045
309
GRIDFORMAT_END
 95
        4
302
GRIDFORMAT
  1
GRIDFORMAT_BEGIN
 90
        0
 91
        1
 62
     0
 92
       -2
340
14
 93
        0
 40
0.045
309
GRIDFORMAT_END
 95
        8
302
GRIDFORMAT
  1
GRIDFORMAT_BEGIN
 90
        0
 91
        1
 62
     0
 92
       -2
340
14
 93
        0
 40
0.045
309
GRIDFORMAT_END
 95
       16
302
GRIDFORMAT
  1
GRIDFORMAT_BEGIN
 90
        0
 91
        1
 62
     0
 92
       -2
340
14
 93
        0
 40
0.045
309
GRIDFORMAT_END
 95
       32
302
GRIDFORMAT
  1
GRIDFORMAT_BEGIN
 90
        0
 91
        1
 62
     0
 92
       -2
340
14
 93
        0
 40
0.045
309
GRIDFORMAT_END
309
TABLEFORMAT_END
  1
CELLSTYLE_BEGIN
 90
        3
 91
        2
300
_DATA
309
CELLSTYLE_END
  0
XRECORD
  5
1C2
102
{ACAD_REACTORS
330
1C1
102
}
330
1C1
100
AcDbXrecord
280
     1
102
ACAD_ROUNDTRIP_PRE2007_TABLESTYLE
 90
        4
 91
        0
  1

 92
        4
 93
        0
  2

 94
        4
 95
        0
  3

  0
XRECORD
  5
194
102
{ACAD_REACTORS
330
193
102
}
330
193
100
AcDbXrecord
280
     1
102
RTVSPropertyOp0
 70
     1
102
RTVSPropertyOp1
 70
     1
102
RTVSPropertyOp2
 70
     1
102
RTVSPropertyOp3
 70
     1
102
RTVSPropertyOp4
 70
     1
102
RTVSPropertyOp5
 70
     1
102
RTVSPropertyOp6
 70
     1
102
RTVSPropertyOp7
 70
     1
102
RTVSPropertyOp8
 70
     1
102
RTVSPropertyOp9
 70
     1
102
RTVSPropertyOp10
 70
     1
102
RTVSPropertyOp11
 70
     1
102
RTVSPropertyOp12
 70
     1
102
RTVSPropertyOp13
 70
     1
102
RTVSPropertyOp14
 70
     1
102
RTVSPropertyOp15
 70
     1
102
RTVSPropertyOp16
 70
     1
102
RTVSPropertyOp17
 70
     1
102
RTVSPropertyOp18
 70
     1
102
RTVSPropertyOp19
 70
     1
102
RTVSPropertyOp20
 70
     1
102
RTVSPropertyOp21
 70
     1
102
RTVSPropertyOp22
 70
     1
102
RTVSPropertyOp23
 70
     1
102
RTVSPropertyOp24
 70
     1
102
RTVSPropertyOp25
 70
     1
102
RTVSPropertyOp26
 70
     1
102
RTVSPropertyOp27
 70
     1
102
RTVSPropertyOp28
 70
     1
102
RTVSPropertyOp29
 70
     1
102
RTVSPropertyOp30
 70
     1
102
RTVSPropertyOp31
 70
     1
102
RTVSPropertyOp32
 70
     1
102
RTVSPropertyOp33
 70
     1
102
RTVSPropertyOp34
 70
     1
102
RTVSPropertyOp35
 70
     1
102
RTVSPropertyOp36
 70
     1
102
RTVSPropertyOp37
 70
     1
102
RTVSPropertyOp38
 70
     1
102
RTVSPropertyOp39
 70
     1
102
RTVSPropertyOp40
 70
     1
102
RTVSPropertyOp41
 70
     1
102
RTVSPropertyOp42
 70
     1
102
RTVSPropertyOp43
 70
     1
102
RTVSPropertyOp44
 70
     1
102
RTVSPropertyOp45
 70
     1
102
RTVSPropertyOp46
 70
     1
102
RTVSPropertyOp47
 70
     1
102
RTVSPropertyOp48
 70
     1
102
RTVSPropertyOp49
 70
     1
102
RTVSPropertyOp50
 70
     1
102
RTVSPropertyOp51
 70
     0
102
RTVSPropertyOp52
 70
     0
102
RTVSPropertyOp53
 70
     1
102
RTVSPropertyOp54
 70
     1
102
RTVSPropertyOp55
 70
     1
102
RTVSPropertyOp56
 70
     1
102
RTVSPropertyOp57
 70
     1
102
RTVSPost2010Prop28
280
     1
102
RTVSPost2010PropOp28
 70
     1
102
RTVSPost2010Prop29
280
     1
102
RTVSPost2010PropOp29
 70
     1
102
RTVSPost2010Prop30
280
     0
102
RTVSPost2010PropOp30
 70
     1
102
RTVSPost2010Prop31
280
     0
102
RTVSPost2010PropOp31
 70
     1
102
RTVSPost2010Prop32
280
     0
102
RTVSPost2010PropOp32
 70
     1
102
RTVSPost2010Prop33
280
     0
102
RTVSPost2010PropOp33
 70
     1
102
RTVSPost2010Prop34
280
     0
102
RTVSPost2010PropOp34
 70
     1
102
RTVSPost2010Prop35
280
     0
102
RTVSPost2010PropOp35
 70
     1
102
RTVSPost2010Prop36
280
     0
102
RTVSPost2010PropOp36
 70
     1
102
RTVSPost2010Prop37
 90
       50
102
RTVSPost2010PropOp37
 70
     1
102
RTVSPost2010Prop38
140
0.0
102
RTVSPost2010PropOp38
 70
     1
102
RTVSPost2010Prop39
140
1.0
102
RTVSPost2010PropOp39
 70
     1
102
RTVSPost2010Prop40
 90
        0
102
RTVSPost2010PropOp40
 70
     1
102
RTVSPost2010Prop41ColorIndex
 90
       18
102
RTVSPost2010Prop41ColorRGB
 90
        0
102
RTVSPost2010PropOp41
 70
     1
102
RTVSPost2010Prop42
 90
       50
102
RTVSPost2010PropOp42
 70
     1
102
RTVSPost2010Prop43
 90
        3
102
RTVSPost2010PropOp43
 70
     1
102
RTVSPost2010Prop44ColorIndex
 90
        5
102
RTVSPost2010Prop44ColorRGB
 90
      255
102
RTVSPost2010PropOp44
 70
     1
102
RTVSPost2010Prop45
280
     0
102
RTVSPost2010PropOp45
 70
     1
102
RTVSPost2010Prop46
 90
       50
102
RTVSPost2010PropOp46
 70
     1
102
RTVSPost2010Prop47
 90
       50
102
RTVSPost2010PropOp47
 70
     1
102
RTVSPost2010Prop48
 90
       50
102
RTVSPost2010PropOp48
 70
     1
102
RTVSPost2010Prop49
280
     0
102
RTVSPost2010PropOp49
 70
     1
102
RTVSPost2010Prop50
 90
       50
102
RTVSPost2010PropOp50
 70
     1
102
RTVSPost2010Prop51ColorIndex
 90
      256
102
RTVSPost2010Prop51ColorRGB
 90
-16777216
102
RTVSPost2010PropOp51
 70
     0
102
RTVSPost2010Prop52
140
1.0
102
RTVSPost2010PropOp52
 70
     0
102
RTVSPost2010Prop53
 90
        2
102
RTVSPost2010PropOp53
 70
     1
102
RTVSPost2010Prop54
  1
strokes_ogs.tif
102
RTVSPost2010PropOp54
 70
     1
102
RTVSPost2010Prop55
280
     0
102
RTVSPost2010PropOp55
 70
     1
102
RTVSPost2010Prop56
140
1.0
102
RTVSPost2010PropOp56
 70
     1
102
RTVSPost2010Prop57
140
1.0
102
RTVSPost2010PropOp57
 70
     1
  0
XRECORD
  5
19A
102
{ACAD_REACTORS
330
199
102
}
330
199
100
AcDbXrecord
280
     1
102
RTVSPropertyOp0
 70
     1
102
RTVSPropertyOp1
 70
     1
102
RTVSPropertyOp2
 70
     1
102
RTVSPropertyOp3
 70
     1
102
RTVSPropertyOp4
 70
     1
102
RTVSPropertyOp5
 70
     1
102
RTVSPropertyOp6
 70
     1
102
RTVSPropertyOp7
 70
     1
102
RTVSPropertyOp8
 70
     1
102
RTVSPropertyOp9
 70
     1
102
RTVSPropertyOp10
 70
     1
102
RTVSPropertyOp11
 70
     1
102
RTVSPropertyOp12
 70
     1
102
RTVSPropertyOp13
 70
     1
102
RTVSPropertyOp14
 70
     1
102
RTVSPropertyOp15
 70
     1
102
RTVSPropertyOp16
 70
     1
102
RTVSPropertyOp17
 70
     1
102
RTVSPropertyOp18
 70
     1
102
RTVSPropertyOp19
 70
     1
102
RTVSPropertyOp20
 70
     1
102
RTVSPropertyOp21
 70
     1
102
RTVSPropertyOp22
 70
     1
102
RTVSPropertyOp23
 70
     1
102
RTVSPropertyOp24
 70
     1
102
RTVSPropertyOp25
 70
     1
102
RTVSPropertyOp26
 70
     1
102
RTVSPropertyOp27
 70
     1
102
RTVSPropertyOp28
 70
     1
102
RTVSPropertyOp29
 70
     1
102
RTVSPropertyOp30
 70
     1
102
RTVSPropertyOp31
 70
     1
102
RTVSPropertyOp32
 70
     1
102
RTVSPropertyOp33
 70
     1
102
RTVSPropertyOp34
 70
     1
102
RTVSPropertyOp35
 70
     1
102
RTVSPropertyOp36
 70
     1
102
RTVSPropertyOp37
 70
     1
102
RTVSPropertyOp38
 70
     1
102
RTVSPropertyOp39
 70
     1
102
RTVSPropertyOp40
 70
     1
102
RTVSPropertyOp41
 70
     1
102
RTVSPropertyOp42
 70
     1
102
RTVSPropertyOp43
 70
     1
102
RTVSPropertyOp44
 70
     1
102
RTVSPropertyOp45
 70
     1
102
RTVSPropertyOp46
 70
     1
102
RTVSPropertyOp47
 70
     1
102
RTVSPropertyOp48
 70
     1
102
RTVSPropertyOp49
 70
     1
102
RTVSPropertyOp50
 70
     1
102
RTVSPropertyOp51
 70
     0
102
RTVSPropertyOp52
 70
     0
102
RTVSPropertyOp53
 70
     1
102
RTVSPropertyOp54
 70
     1
102
RTVSPropertyOp55
 70
     1
102
RTVSPropertyOp56
 70
     1
102
RTVSPropertyOp57
 70
     1
102
RTVSPost2010Prop28
280
     0
102
RTVSPost2010PropOp28
 70
     1
102
RTVSPost2010Prop29
280
     1
102
RTVSPost2010PropOp29
 70
     1
102
RTVSPost2010Prop30
280
     1
102
RTVSPost2010PropOp30
 70
     1
102
RTVSPost2010Prop31
280
     0
102
RTVSPost2010PropOp31
 70
     1
102
RTVSPost2010Prop32
280
     0
102
RTVSPost2010PropOp32
 70
     1
102
RTVSPost2010Prop33
280
     0
102
RTVSPost2010PropOp33
 70
     1
102
RTVSPost2010Prop34
280
     0
102
RTVSPost2010PropOp34
 70
     1
102
RTVSPost2010Prop35
280
     0
102
RTVSPost2010PropOp35
 70
     1
102
RTVSPost2010Prop36
280
     0
102
RTVSPost2010PropOp36
 70
     1
102
RTVSPost2010Prop37
 90
       50
102
RTVSPost2010PropOp37
 70
     1
102
RTVSPost2010Prop38
140
0.0
102
RTVSPost2010PropOp38
 70
     1
102
RTVSPost2010Prop39
140
1.0
102
RTVSPost2010PropOp39
 70
     1
102
RTVSPost2010Prop40
 90
        0
102
RTVSPost2010PropOp40
 70
     1
102
RTVSPost2010Prop41ColorIndex
 90
       18
102
RTVSPost2010Prop41ColorRGB
 90
        0
102
RTVSPost2010PropOp41
 70
     1
102
RTVSPost2010Prop42
 90
       50
102
RTVSPost2010PropOp42
 70
     1
102
RTVSPost2010Prop43
 90
        3
102
RTVSPost2010PropOp43
 70
     1
102
RTVSPost2010Prop44ColorIndex
 90
        5
102
RTVSPost2010Prop44ColorRGB
 90
      255
102
RTVSPost2010PropOp44
 70
     1
102
RTVSPost2010Prop45
280
     0
102
RTVSPost2010PropOp45
 70
     1
102
RTVSPost2010Prop46
 90
       50
102
RTVSPost2010PropOp46
 70
     1
102
RTVSPost2010Prop47
 90
       50
102
RTVSPost2010PropOp47
 70
     1
102
RTVSPost2010Prop48
 90
       50
102
RTVSPost2010PropOp48
 70
     1
102
RTVSPost2010Prop49
280
     0
102
RTVSPost2010PropOp49
 70
     1
102
RTVSPost2010Prop50
 90
       50
102
RTVSPost2010PropOp50
 70
     1
102
RTVSPost2010Prop51ColorIndex
 90
      256
102
RTVSPost2010Prop51ColorRGB
 90
-16777216
102
RTVSPost2010PropOp51
 70
     0
102
RTVSPost2010Prop52
140
1.0
102
RTVSPost2010PropOp52
 70
     0
102
RTVSPost2010Prop53
 90
        2
102
RTVSPost2010PropOp53
 70
     1
102
RTVSPost2010Prop54
  1
strokes_ogs.tif
102
RTVSPost2010PropOp54
 70
     1
102
RTVSPost2010Prop55
280
     0
102
RTVSPost2010PropOp55
 70
     1
102
RTVSPost2010Prop56
140
1.0
102
RTVSPost2010PropOp56
 70
     1
102
RTVSPost2010Prop57
140
1.0
102
RTVSPost2010PropOp57
 70
     1
  0
XRECORD
  5
1A2
102
{ACAD_REACTORS
330
1A1
102
}
330
1A1
100
AcDbXrecord
280
     1
102
RTVSPropertyOp0
 70
     1
102
RTVSPropertyOp1
 70
     1
102
RTVSPropertyOp2
 70
     1
102
RTVSPropertyOp3
 70
     1
102
RTVSPropertyOp4
 70
     1
102
RTVSPropertyOp5
 70
     1
102
RTVSPropertyOp6
 70
     1
102
RTVSPropertyOp7
 70
     1
102
RTVSPropertyOp8
 70
     1
102
RTVSPropertyOp9
 70
     1
102
RTVSPropertyOp10
 70
     1
102
RTVSPropertyOp11
 70
     1
102
RTVSPropertyOp12
 70
     1
102
RTVSPropertyOp13
 70
     1
102
RTVSPropertyOp14
 70
     1
102
RTVSPropertyOp15
 70
     1
102
RTVSPropertyOp16
 70
     1
102
RTVSPropertyOp17
 70
     1
102
RTVSPropertyOp18
 70
     1
102
RTVSPropertyOp19
 70
     1
102
RTVSPropertyOp20
 70
     1
102
RTVSPropertyOp21
 70
     1
102
RTVSPropertyOp22
 70
     1
102
RTVSPropertyOp23
 70
     1
102
RTVSPropertyOp24
 70
     1
102
RTVSPropertyOp25
 70
     1
102
RTVSPropertyOp26
 70
     1
102
RTVSPropertyOp27
 70
     1
102
RTVSPropertyOp28
 70
     1
102
RTVSPropertyOp29
 70
     1
102
RTVSPropertyOp30
 70
     1
102
RTVSPropertyOp31
 70
     1
102
RTVSPropertyOp32
 70
     1
102
RTVSPropertyOp33
 70
     1
102
RTVSPropertyOp34
 70
     1
102
RTVSPropertyOp35
 70
     1
102
RTVSPropertyOp36
 70
     1
102
RTVSPropertyOp37
 70
     1
102
RTVSPropertyOp38
 70
     1
102
RTVSPropertyOp39
 70
     1
102
RTVSPropertyOp40
 70
     1
102
RTVSPropertyOp41
 70
     1
102
RTVSPropertyOp42
 70
     1
102
RTVSPropertyOp43
 70
     1
102
RTVSPropertyOp44
 70
     1
102
RTVSPropertyOp45
 70
     1
102
RTVSPropertyOp46
 70
     1
102
RTVSPropertyOp47
 70
     1
102
RTVSPropertyOp48
 70
     1
102
RTVSPropertyOp49
 70
     1
102
RTVSPropertyOp50
 70
     1
102
RTVSPropertyOp51
 70
     0
102
RTVSPropertyOp52
 70
     0
102
RTVSPropertyOp53
 70
     1
102
RTVSPropertyOp54
 70
     1
102
RTVSPropertyOp55
 70
     1
102
RTVSPropertyOp56
 70
     1
102
RTVSPropertyOp57
 70
     1
102
RTVSPost2010Prop28
280
     0
102
RTVSPost2010PropOp28
 70
     1
102
RTVSPost2010Prop29
280
     1
102
RTVSPost2010PropOp29
 70
     1
102
RTVSPost2010Prop30
280
     1
102
RTVSPost2010PropOp30
 70
     1
102
RTVSPost2010Prop31
280
     0
102
RTVSPost2010PropOp31
 70
     1
102
RTVSPost2010Prop32
280
     0
102
RTVSPost2010PropOp32
 70
     1
102
RTVSPost2010Prop33
280
     0
102
RTVSPost2010PropOp33
 70
     1
102
RTVSPost2010Prop34
280
     0
102
RTVSPost2010PropOp34
 70
     1
102
RTVSPost2010Prop35
280
     0
102
RTVSPost2010PropOp35
 70
     1
102
RTVSPost2010Prop36
280
     0
102
RTVSPost2010PropOp36
 70
     1
102
RTVSPost2010Prop37
 90
       50
102
RTVSPost2010PropOp37
 70
     1
102
RTVSPost2010Prop38
140
0.0
102
RTVSPost2010PropOp38
 70
     1
102
RTVSPost2010Prop39
140
1.0
102
RTVSPost2010PropOp39
 70
     1
102
RTVSPost2010Prop40
 90
        0
102
RTVSPost2010PropOp40
 70
     1
102
RTVSPost2010Prop41ColorIndex
 90
       18
102
RTVSPost2010Prop41ColorRGB
 90
        0
102
RTVSPost2010PropOp41
 70
     1
102
RTVSPost2010Prop42
 90
       50
102
RTVSPost2010PropOp42
 70
     1
102
RTVSPost2010Prop43
 90
        3
102
RTVSPost2010PropOp43
 70
     1
102
RTVSPost2010Prop44ColorIndex
 90
        5
102
RTVSPost2010Prop44ColorRGB
 90
      255
102
RTVSPost2010PropOp44
 70
     1
102
RTVSPost2010Prop45
280
     0
102
RTVSPost2010PropOp45
 70
     1
102
RTVSPost2010Prop46
 90
       50
102
RTVSPost2010PropOp46
 70
     1
102
RTVSPost2010Prop47
 90
       50
102
RTVSPost2010PropOp47
 70
     1
102
RTVSPost2010Prop48
 90
       50
102
RTVSPost2010PropOp48
 70
     1
102
RTVSPost2010Prop49
280
     0
102
RTVSPost2010PropOp49
 70
     1
102
RTVSPost2010Prop50
 90
       50
102
RTVSPost2010PropOp50
 70
     1
102
RTVSPost2010Prop51ColorIndex
 90
      256
102
RTVSPost2010Prop51ColorRGB
 90
-16777216
102
RTVSPost2010PropOp51
 70
     0
102
RTVSPost2010Prop52
140
1.0
102
RTVSPost2010PropOp52
 70
     0
102
RTVSPost2010Prop53
 90
        2
102
RTVSPost2010PropOp53
 70
     1
102
RTVSPost2010Prop54
  1
strokes_ogs.tif
102
RTVSPost2010PropOp54
 70
     1
102
RTVSPost2010Prop55
280
     0
102
RTVSPost2010PropOp55
 70
     1
102
RTVSPost2010Prop56
140
1.0
102
RTVSPost2010PropOp56
 70
     1
102
RTVSPost2010Prop57
140
1.0
102
RTVSPost2010PropOp57
 70
     1
  0
XRECORD
  5
1AA
102
{ACAD_REACTORS
330
1A9
102
}
330
1A9
100
AcDbXrecord
280
     1
102
RTVSPropertyOp0
 70
     1
102
RTVSPropertyOp1
 70
     1
102
RTVSPropertyOp2
 70
     1
102
RTVSPropertyOp3
 70
     1
102
RTVSPropertyOp4
 70
     1
102
RTVSPropertyOp5
 70
     1
102
RTVSPropertyOp6
 70
     1
102
RTVSPropertyOp7
 70
     1
102
RTVSPropertyOp8
 70
     1
102
RTVSPropertyOp9
 70
     1
102
RTVSPropertyOp10
 70
     1
102
RTVSPropertyOp11
 70
     1
102
RTVSPropertyOp12
 70
     1
102
RTVSPropertyOp13
 70
     1
102
RTVSPropertyOp14
 70
     1
102
RTVSPropertyOp15
 70
     1
102
RTVSPropertyOp16
 70
     1
102
RTVSPropertyOp17
 70
     1
102
RTVSPropertyOp18
 70
     1
102
RTVSPropertyOp19
 70
     1
102
RTVSPropertyOp20
 70
     1
102
RTVSPropertyOp21
 70
     1
102
RTVSPropertyOp22
 70
     1
102
RTVSPropertyOp23
 70
     1
102
RTVSPropertyOp24
 70
     1
102
RTVSPropertyOp25
 70
     1
102
RTVSPropertyOp26
 70
     1
102
RTVSPropertyOp27
 70
     1
102
RTVSPropertyOp28
 70
     1
102
RTVSPropertyOp29
 70
     1
102
RTVSPropertyOp30
 70
     1
102
RTVSPropertyOp31
 70
     1
102
RTVSPropertyOp32
 70
     1
102
RTVSPropertyOp33
 70
     1
102
RTVSPropertyOp34
 70
     1
102
RTVSPropertyOp35
 70
     1
102
RTVSPropertyOp36
 70
     1
102
RTVSPropertyOp37
 70
     1
102
RTVSPropertyOp38
 70
     1
102
RTVSPropertyOp39
 70
     1
102
RTVSPropertyOp40
 70
     1
102
RTVSPropertyOp41
 70
     1
102
RTVSPropertyOp42
 70
     1
102
RTVSPropertyOp43
 70
     1
102
RTVSPropertyOp44
 70
     1
102
RTVSPropertyOp45
 70
     1
102
RTVSPropertyOp46
 70
     1
102
RTVSPropertyOp47
 70
     1
102
RTVSPropertyOp48
 70
     1
102
RTVSPropertyOp49
 70
     1
102
RTVSPropertyOp50
 70
     1
102
RTVSPropertyOp51
 70
     0
102
RTVSPropertyOp52
 70
     0
102
RTVSPropertyOp53
 70
     1
102
RTVSPropertyOp54
 70
     1
102
RTVSPropertyOp55
 70
     1
102
RTVSPropertyOp56
 70
     1
102
RTVSPropertyOp57
 70
     1
102
RTVSPost2010Prop28
280
     0
102
RTVSPost2010PropOp28
 70
     1
102
RTVSPost2010Prop29
280
     1
102
RTVSPost2010PropOp29
 70
     1
102
RTVSPost2010Prop30
280
     1
102
RTVSPost2010PropOp30
 70
     1
102
RTVSPost2010Prop31
280
     0
102
RTVSPost2010PropOp31
 70
     1
102
RTVSPost2010Prop32
280
     0
102
RTVSPost2010PropOp32
 70
     1
102
RTVSPost2010Prop33
280
     0
102
RTVSPost2010PropOp33
 70
     1
102
RTVSPost2010Prop34
280
     0
102
RTVSPost2010PropOp34
 70
     1
102
RTVSPost2010Prop35
280
     0
102
RTVSPost2010PropOp35
 70
     1
102
RTVSPost2010Prop36
280
     0
102
RTVSPost2010PropOp36
 70
     1
102
RTVSPost2010Prop37
 90
       50
102
RTVSPost2010PropOp37
 70
     1
102
RTVSPost2010Prop38
140
0.0
102
RTVSPost2010PropOp38
 70
     1
102
RTVSPost2010Prop39
140
1.0
102
RTVSPost2010PropOp39
 70
     1
102
RTVSPost2010Prop40
 90
        0
102
RTVSPost2010PropOp40
 70
     1
102
RTVSPost2010Prop41ColorIndex
 90
       18
102
RTVSPost2010Prop41ColorRGB
 90
        0
102
RTVSPost2010PropOp41
 70
     1
102
RTVSPost2010Prop42
 90
       50
102
RTVSPost2010PropOp42
 70
     1
102
RTVSPost2010Prop43
 90
        3
102
RTVSPost2010PropOp43
 70
     1
102
RTVSPost2010Prop44ColorIndex
 90
        5
102
RTVSPost2010Prop44ColorRGB
 90
      255
102
RTVSPost2010PropOp44
 70
     1
102
RTVSPost2010Prop45
280
     0
102
RTVSPost2010PropOp45
 70
     1
102
RTVSPost2010Prop46
 90
       50
102
RTVSPost2010PropOp46
 70
     1
102
RTVSPost2010Prop47
 90
       50
102
RTVSPost2010PropOp47
 70
     1
102
RTVSPost2010Prop48
 90
       50
102
RTVSPost2010PropOp48
 70
     1
102
RTVSPost2010Prop49
280
     0
102
RTVSPost2010PropOp49
 70
     1
102
RTVSPost2010Prop50
 90
       50
102
RTVSPost2010PropOp50
 70
     1
102
RTVSPost2010Prop51ColorIndex
 90
      256
102
RTVSPost2010Prop51ColorRGB
 90
-16777216
102
RTVSPost2010PropOp51
 70
     0
102
RTVSPost2010Prop52
140
1.0
102
RTVSPost2010PropOp52
 70
     0
102
RTVSPost2010Prop53
 90
        2
102
RTVSPost2010PropOp53
 70
     1
102
RTVSPost2010Prop54
  1
strokes_ogs.tif
102
RTVSPost2010PropOp54
 70
     1
102
RTVSPost2010Prop55
280
     0
102
RTVSPost2010PropOp55
 70
     1
102
RTVSPost2010Prop56
140
1.0
102
RTVSPost2010PropOp56
 70
     1
102
RTVSPost2010Prop57
140
1.0
102
RTVSPost2010PropOp57
 70
     1
  0
XRECORD
  5
19E
102
{ACAD_REACTORS
330
19D
102
}
330
19D
100
AcDbXrecord
280
     1
102
RTVSPropertyOp0
 70
     1
102
RTVSPropertyOp1
 70
     1
102
RTVSPropertyOp2
 70
     1
102
RTVSPropertyOp3
 70
     1
102
RTVSPropertyOp4
 70
     1
102
RTVSPropertyOp5
 70
     1
102
RTVSPropertyOp6
 70
     1
102
RTVSPropertyOp7
 70
     1
102
RTVSPropertyOp8
 70
     1
102
RTVSPropertyOp9
 70
     1
102
RTVSPropertyOp10
 70
     1
102
RTVSPropertyOp11
 70
     1
102
RTVSPropertyOp12
 70
     1
102
RTVSPropertyOp13
 70
     1
102
RTVSPropertyOp14
 70
     1
102
RTVSPropertyOp15
 70
     1
102
RTVSPropertyOp16
 70
     1
102
RTVSPropertyOp17
 70
     1
102
RTVSPropertyOp18
 70
     1
102
RTVSPropertyOp19
 70
     1
102
RTVSPropertyOp20
 70
     1
102
RTVSPropertyOp21
 70
     1
102
RTVSPropertyOp22
 70
     1
102
RTVSPropertyOp23
 70
     1
102
RTVSPropertyOp24
 70
     1
102
RTVSPropertyOp25
 70
     1
102
RTVSPropertyOp26
 70
     1
102
RTVSPropertyOp27
 70
     1
102
RTVSPropertyOp28
 70
     1
102
RTVSPropertyOp29
 70
     1
102
RTVSPropertyOp30
 70
     1
102
RTVSPropertyOp31
 70
     1
102
RTVSPropertyOp32
 70
     1
102
RTVSPropertyOp33
 70
     1
102
RTVSPropertyOp34
 70
     1
102
RTVSPropertyOp35
 70
     1
102
RTVSPropertyOp36
 70
     1
102
RTVSPropertyOp37
 70
     1
102
RTVSPropertyOp38
 70
     1
102
RTVSPropertyOp39
 70
     1
102
RTVSPropertyOp40
 70
     1
102
RTVSPropertyOp41
 70
     1
102
RTVSPropertyOp42
 70
     1
102
RTVSPropertyOp43
 70
     1
102
RTVSPropertyOp44
 70
     1
102
RTVSPropertyOp45
 70
     1
102
RTVSPropertyOp46
 70
     1
102
RTVSPropertyOp47
 70
     1
102
RTVSPropertyOp48
 70
     1
102
RTVSPropertyOp49
 70
     1
102
RTVSPropertyOp50
 70
     1
102
RTVSPropertyOp51
 70
     0
102
RTVSPropertyOp52
 70
     0
102
RTVSPropertyOp53
 70
     1
102
RTVSPropertyOp54
 70
     1
102
RTVSPropertyOp55
 70
     1
102
RTVSPropertyOp56
 70
     1
102
RTVSPropertyOp57
 70
     1
102
RTVSPost2010Prop28
280
     0
102
RTVSPost2010PropOp28
 70
     1
102
RTVSPost2010Prop29
280
     1
102
RTVSPost2010PropOp29
 70
     1
102
RTVSPost2010Prop30
280
     1
102
RTVSPost2010PropOp30
 70
     1
102
RTVSPost2010Prop31
280
     0
102
RTVSPost2010PropOp31
 70
     1
102
RTVSPost2010Prop32
280
     0
102
RTVSPost2010PropOp32
 70
     1
102
RTVSPost2010Prop33
280
     0
102
RTVSPost2010PropOp33
 70
     1
102
RTVSPost2010Prop34
280
     0
102
RTVSPost2010PropOp34
 70
     1
102
RTVSPost2010Prop35
280
     0
102
RTVSPost2010PropOp35
 70
     1
102
RTVSPost2010Prop36
280
     0
102
RTVSPost2010PropOp36
 70
     1
102
RTVSPost2010Prop37
 90
       50
102
RTVSPost2010PropOp37
 70
     1
102
RTVSPost2010Prop38
140
0.0
102
RTVSPost2010PropOp38
 70
     1
102
RTVSPost2010Prop39
140
1.0
102
RTVSPost2010PropOp39
 70
     1
102
RTVSPost2010Prop40
 90
        0
102
RTVSPost2010PropOp40
 70
     1
102
RTVSPost2010Prop41ColorIndex
 90
       18
102
RTVSPost2010Prop41ColorRGB
 90
        0
102
RTVSPost2010PropOp41
 70
     1
102
RTVSPost2010Prop42
 90
       50
102
RTVSPost2010PropOp42
 70
     1
102
RTVSPost2010Prop43
 90
        3
102
RTVSPost2010PropOp43
 70
     1
102
RTVSPost2010Prop44ColorIndex
 90
        5
102
RTVSPost2010Prop44ColorRGB
 90
      255
102
RTVSPost2010PropOp44
 70
     1
102
RTVSPost2010Prop45
280
     0
102
RTVSPost2010PropOp45
 70
     1
102
RTVSPost2010Prop46
 90
       50
102
RTVSPost2010PropOp46
 70
     1
102
RTVSPost2010Prop47
 90
       50
102
RTVSPost2010PropOp47
 70
     1
102
RTVSPost2010Prop48
 90
       50
102
RTVSPost2010PropOp48
 70
     1
102
RTVSPost2010Prop49
280
     0
102
RTVSPost2010PropOp49
 70
     1
102
RTVSPost2010Prop50
 90
       50
102
RTVSPost2010PropOp50
 70
     1
102
RTVSPost2010Prop51ColorIndex
 90
      256
102
RTVSPost2010Prop51ColorRGB
 90
-16777216
102
RTVSPost2010PropOp51
 70
     0
102
RTVSPost2010Prop52
140
1.0
102
RTVSPost2010PropOp52
 70
     0
102
RTVSPost2010Prop53
 90
        2
102
RTVSPost2010PropOp53
 70
     1
102
RTVSPost2010Prop54
  1
strokes_ogs.tif
102
RTVSPost2010PropOp54
 70
     1
102
RTVSPost2010Prop55
280
     0
102
RTVSPost2010PropOp55
 70
     1
102
RTVSPost2010Prop56
140
1.0
102
RTVSPost2010PropOp56
 70
     1
102
RTVSPost2010Prop57
140
1.0
102
RTVSPost2010PropOp57
 70
     1
  0
XRECORD
  5
1A0
102
{ACAD_REACTORS
330
19F
102
}
330
19F
100
AcDbXrecord
280
     1
102
RTVSPropertyOp0
 70
     1
102
RTVSPropertyOp1
 70
     1
102
RTVSPropertyOp2
 70
     1
102
RTVSPropertyOp3
 70
     1
102
RTVSPropertyOp4
 70
     1
102
RTVSPropertyOp5
 70
     1
102
RTVSPropertyOp6
 70
     1
102
RTVSPropertyOp7
 70
     1
102
RTVSPropertyOp8
 70
     1
102
RTVSPropertyOp9
 70
     1
102
RTVSPropertyOp10
 70
     1
102
RTVSPropertyOp11
 70
     1
102
RTVSPropertyOp12
 70
     1
102
RTVSPropertyOp13
 70
     1
102
RTVSPropertyOp14
 70
     1
102
RTVSPropertyOp15
 70
     1
102
RTVSPropertyOp16
 70
     1
102
RTVSPropertyOp17
 70
     1
102
RTVSPropertyOp18
 70
     1
102
RTVSPropertyOp19
 70
     1
102
RTVSPropertyOp20
 70
     1
102
RTVSPropertyOp21
 70
     1
102
RTVSPropertyOp22
 70
     1
102
RTVSPropertyOp23
 70
     1
102
RTVSPropertyOp24
 70
     1
102
RTVSPropertyOp25
 70
     1
102
RTVSPropertyOp26
 70
     1
102
RTVSPropertyOp27
 70
     1
102
RTVSPropertyOp28
 70
     1
102
RTVSPropertyOp29
 70
     1
102
RTVSPropertyOp30
 70
     1
102
RTVSPropertyOp31
 70
     1
102
RTVSPropertyOp32
 70
     1
102
RTVSPropertyOp33
 70
     1
102
RTVSPropertyOp34
 70
     1
102
RTVSPropertyOp35
 70
     1
102
RTVSPropertyOp36
 70
     1
102
RTVSPropertyOp37
 70
     1
102
RTVSPropertyOp38
 70
     1
102
RTVSPropertyOp39
 70
     1
102
RTVSPropertyOp40
 70
     1
102
RTVSPropertyOp41
 70
     1
102
RTVSPropertyOp42
 70
     1
102
RTVSPropertyOp43
 70
     1
102
RTVSPropertyOp44
 70
     1
102
RTVSPropertyOp45
 70
     1
102
RTVSPropertyOp46
 70
     1
102
RTVSPropertyOp47
 70
     1
102
RTVSPropertyOp48
 70
     1
102
RTVSPropertyOp49
 70
     1
102
RTVSPropertyOp50
 70
     1
102
RTVSPropertyOp51
 70
     0
102
RTVSPropertyOp52
 70
     0
102
RTVSPropertyOp53
 70
     1
102
RTVSPropertyOp54
 70
     1
102
RTVSPropertyOp55
 70
     1
102
RTVSPropertyOp56
 70
     1
102
RTVSPropertyOp57
 70
     1
102
RTVSPost2010Prop28
280
     0
102
RTVSPost2010PropOp28
 70
     1
102
RTVSPost2010Prop29
280
     1
102
RTVSPost2010PropOp29
 70
     1
102
RTVSPost2010Prop30
280
     1
102
RTVSPost2010PropOp30
 70
     1
102
RTVSPost2010Prop31
280
     0
102
RTVSPost2010PropOp31
 70
     1
102
RTVSPost2010Prop32
280
     0
102
RTVSPost2010PropOp32
 70
     1
102
RTVSPost2010Prop33
280
     0
102
RTVSPost2010PropOp33
 70
     1
102
RTVSPost2010Prop34
280
     0
102
RTVSPost2010PropOp34
 70
     1
102
RTVSPost2010Prop35
280
     0
102
RTVSPost2010PropOp35
 70
     1
102
RTVSPost2010Prop36
280
     0
102
RTVSPost2010PropOp36
 70
     1
102
RTVSPost2010Prop37
 90
       50
102
RTVSPost2010PropOp37
 70
     1
102
RTVSPost2010Prop38
140
0.0
102
RTVSPost2010PropOp38
 70
     1
102
RTVSPost2010Prop39
140
1.0
102
RTVSPost2010PropOp39
 70
     1
102
RTVSPost2010Prop40
 90
        0
102
RTVSPost2010PropOp40
 70
     1
102
RTVSPost2010Prop41ColorIndex
 90
       18
102
RTVSPost2010Prop41ColorRGB
 90
        0
102
RTVSPost2010PropOp41
 70
     1
102
RTVSPost2010Prop42
 90
       50
102
RTVSPost2010PropOp42
 70
     1
102
RTVSPost2010Prop43
 90
        3
102
RTVSPost2010PropOp43
 70
     1
102
RTVSPost2010Prop44ColorIndex
 90
        5
102
RTVSPost2010Prop44ColorRGB
 90
      255
102
RTVSPost2010PropOp44
 70
     1
102
RTVSPost2010Prop45
280
     0
102
RTVSPost2010PropOp45
 70
     1
102
RTVSPost2010Prop46
 90
       50
102
RTVSPost2010PropOp46
 70
     1
102
RTVSPost2010Prop47
 90
       50
102
RTVSPost2010PropOp47
 70
     1
102
RTVSPost2010Prop48
 90
       50
102
RTVSPost2010PropOp48
 70
     1
102
RTVSPost2010Prop49
280
     0
102
RTVSPost2010PropOp49
 70
     1
102
RTVSPost2010Prop50
 90
       50
102
RTVSPost2010PropOp50
 70
     1
102
RTVSPost2010Prop51ColorIndex
 90
      256
102
RTVSPost2010Prop51ColorRGB
 90
-16777216
102
RTVSPost2010PropOp51
 70
     0
102
RTVSPost2010Prop52
140
1.0
102
RTVSPost2010PropOp52
 70
     0
102
RTVSPost2010Prop53
 90
        2
102
RTVSPost2010PropOp53
 70
     1
102
RTVSPost2010Prop54
  1
strokes_ogs.tif
102
RTVSPost2010PropOp54
 70
     1
102
RTVSPost2010Prop55
280
     0
102
RTVSPost2010PropOp55
 70
     1
102
RTVSPost2010Prop56
140
1.0
102
RTVSPost2010PropOp56
 70
     1
102
RTVSPost2010Prop57
140
1.0
102
RTVSPost2010PropOp57
 70
     1
  0
XRECORD
  5
1B0
102
{ACAD_REACTORS
330
1AF
102
}
330
1AF
100
AcDbXrecord
280
     1
102
RTVSPropertyOp0
 70
     0
102
RTVSPropertyOp1
 70
     0
102
RTVSPropertyOp2
 70
     0
102
RTVSPropertyOp3
 70
     0
102
RTVSPropertyOp4
 70
     0
102
RTVSPropertyOp5
 70
     0
102
RTVSPropertyOp6
 70
     0
102
RTVSPropertyOp7
 70
     0
102
RTVSPropertyOp8
 70
     0
102
RTVSPropertyOp9
 70
     0
102
RTVSPropertyOp10
 70
     0
102
RTVSPropertyOp11
 70
     0
102
RTVSPropertyOp12
 70
     0
102
RTVSPropertyOp13
 70
     0
102
RTVSPropertyOp14
 70
     2
102
RTVSPropertyOp15
 70
     0
102
RTVSPropertyOp16
 70
     0
102
RTVSPropertyOp17
 70
     0
102
RTVSPropertyOp18
 70
     0
102
RTVSPropertyOp19
 70
     0
102
RTVSPropertyOp20
 70
     0
102
RTVSPropertyOp21
 70
     0
102
RTVSPropertyOp22
 70
     0
102
RTVSPropertyOp23
 70
     0
102
RTVSPropertyOp24
 70
     0
102
RTVSPropertyOp25
 70
     0
102
RTVSPropertyOp26
 70
     0
102
RTVSPropertyOp27
 70
     0
102
RTVSPropertyOp28
 70
     0
102
RTVSPropertyOp29
 70
     0
102
RTVSPropertyOp30
 70
     0
102
RTVSPropertyOp31
 70
     0
102
RTVSPropertyOp32
 70
     0
102
RTVSPropertyOp33
 70
     0
102
RTVSPropertyOp34
 70
     0
102
RTVSPropertyOp35
 70
     0
102
RTVSPropertyOp36
 70
     0
102
RTVSPropertyOp37
 70
     0
102
RTVSPropertyOp38
 70
     0
102
RTVSPropertyOp39
 70
     0
102
RTVSPropertyOp40
 70
     0
102
RTVSPropertyOp41
 70
     0
102
RTVSPropertyOp42
 70
     0
102
RTVSPropertyOp43
 70
     0
102
RTVSPropertyOp44
 70
     0
102
RTVSPropertyOp45
 70
     0
102
RTVSPropertyOp46
 70
     0
102
RTVSPropertyOp47
 70
     0
102
RTVSPropertyOp48
 70
     0
102
RTVSPropertyOp49
 70
     0
102
RTVSPropertyOp50
 70
     0
102
RTVSPropertyOp51
 70
     0
102
RTVSPropertyOp52
 70
     0
102
RTVSPropertyOp53
 70
     0
102
RTVSPropertyOp54
 70
     0
102
RTVSPropertyOp55
 70
     0
102
RTVSPropertyOp56
 70
     0
102
RTVSPropertyOp57
 70
     0
102
RTVSPost2010Prop28
280
     0
102
RTVSPost2010PropOp28
 70
     0
102
RTVSPost2010Prop29
280
     1
102
RTVSPost2010PropOp29
 70
     0
102
RTVSPost2010Prop30
280
     1
102
RTVSPost2010PropOp30
 70
     0
102
RTVSPost2010Prop31
280
     0
102
RTVSPost2010PropOp31
 70
     0
102
RTVSPost2010Prop32
280
     0
102
RTVSPost2010PropOp32
 70
     0
102
RTVSPost2010Prop33
280
     0
102
RTVSPost2010PropOp33
 70
     0
102
RTVSPost2010Prop34
280
     0
102
RTVSPost2010PropOp34
 70
     0
102
RTVSPost2010Prop35
280
     0
102
RTVSPost2010PropOp35
 70
     0
102
RTVSPost2010Prop36
280
     0
102
RTVSPost2010PropOp36
 70
     0
102
RTVSPost2010Prop37
 90
       50
102
RTVSPost2010PropOp37
 70
     0
102
RTVSPost2010Prop38
140
0.0
102
RTVSPost2010PropOp38
 70
     0
102
RTVSPost2010Prop39
140
1.0
102
RTVSPost2010PropOp39
 70
     0
102
RTVSPost2010Prop40
 90
        0
102
RTVSPost2010PropOp40
 70
     0
102
RTVSPost2010Prop41ColorIndex
 90
       18
102
RTVSPost2010Prop41ColorRGB
 90
        0
102
RTVSPost2010PropOp41
 70
     0
102
RTVSPost2010Prop42
 90
       50
102
RTVSPost2010PropOp42
 70
     0
102
RTVSPost2010Prop43
 90
        3
102
RTVSPost2010PropOp43
 70
     0
102
RTVSPost2010Prop44ColorIndex
 90
        5
102
RTVSPost2010Prop44ColorRGB
 90
      255
102
RTVSPost2010PropOp44
 70
     0
102
RTVSPost2010Prop45
280
     0
102
RTVSPost2010PropOp45
 70
     0
102
RTVSPost2010Prop46
 90
       50
102
RTVSPost2010PropOp46
 70
     0
102
RTVSPost2010Prop47
 90
       50
102
RTVSPost2010PropOp47
 70
     0
102
RTVSPost2010Prop48
 90
       50
102
RTVSPost2010PropOp48
 70
     0
102
RTVSPost2010Prop49
280
     0
102
RTVSPost2010PropOp49
 70
     0
102
RTVSPost2010Prop50
 90
       50
102
RTVSPost2010PropOp50
 70
     0
102
RTVSPost2010Prop51ColorIndex
 90
      256
102
RTVSPost2010Prop51ColorRGB
 90
-16777216
102
RTVSPost2010PropOp51
 70
     0
102
RTVSPost2010Prop52
140
1.0
102
RTVSPost2010PropOp52
 70
     0
102
RTVSPost2010Prop53
 90
        2
102
RTVSPost2010PropOp53
 70
     0
102
RTVSPost2010Prop54
  1
strokes_ogs.tif
102
RTVSPost2010PropOp54
 70
     0
102
RTVSPost2010Prop55
280
     0
102
RTVSPost2010PropOp55
 70
     0
102
RTVSPost2010Prop56
140
1.0
102
RTVSPost2010PropOp56
 70
     0
102
RTVSPost2010Prop57
140
1.0
102
RTVSPost2010PropOp57
 70
     0
  0
XRECORD
  5
1A8
102
{ACAD_REACTORS
330
1A7
102
}
330
1A7
100
AcDbXrecord
280
     1
102
RTVSPropertyOp0
 70
     1
102
RTVSPropertyOp1
 70
     1
102
RTVSPropertyOp2
 70
     1
102
RTVSPropertyOp3
 70
     1
102
RTVSPropertyOp4
 70
     1
102
RTVSPropertyOp5
 70
     1
102
RTVSPropertyOp6
 70
     1
102
RTVSPropertyOp7
 70
     1
102
RTVSPropertyOp8
 70
     1
102
RTVSPropertyOp9
 70
     1
102
RTVSPropertyOp10
 70
     1
102
RTVSPropertyOp11
 70
     1
102
RTVSPropertyOp12
 70
     1
102
RTVSPropertyOp13
 70
     1
102
RTVSPropertyOp14
 70
     1
102
RTVSPropertyOp15
 70
     1
102
RTVSPropertyOp16
 70
     1
102
RTVSPropertyOp17
 70
     1
102
RTVSPropertyOp18
 70
     1
102
RTVSPropertyOp19
 70
     1
102
RTVSPropertyOp20
 70
     1
102
RTVSPropertyOp21
 70
     1
102
RTVSPropertyOp22
 70
     1
102
RTVSPropertyOp23
 70
     1
102
RTVSPropertyOp24
 70
     1
102
RTVSPropertyOp25
 70
     1
102
RTVSPropertyOp26
 70
     1
102
RTVSPropertyOp27
 70
     1
102
RTVSPropertyOp28
 70
     1
102
RTVSPropertyOp29
 70
     1
102
RTVSPropertyOp30
 70
     1
102
RTVSPropertyOp31
 70
     1
102
RTVSPropertyOp32
 70
     1
102
RTVSPropertyOp33
 70
     1
102
RTVSPropertyOp34
 70
     1
102
RTVSPropertyOp35
 70
     1
102
RTVSPropertyOp36
 70
     1
102
RTVSPropertyOp37
 70
     1
102
RTVSPropertyOp38
 70
     1
102
RTVSPropertyOp39
 70
     1
102
RTVSPropertyOp40
 70
     1
102
RTVSPropertyOp41
 70
     1
102
RTVSPropertyOp42
 70
     1
102
RTVSPropertyOp43
 70
     1
102
RTVSPropertyOp44
 70
     1
102
RTVSPropertyOp45
 70
     1
102
RTVSPropertyOp46
 70
     1
102
RTVSPropertyOp47
 70
     1
102
RTVSPropertyOp48
 70
     1
102
RTVSPropertyOp49
 70
     1
102
RTVSPropertyOp50
 70
     1
102
RTVSPropertyOp51
 70
     0
102
RTVSPropertyOp52
 70
     0
102
RTVSPropertyOp53
 70
     1
102
RTVSPropertyOp54
 70
     1
102
RTVSPropertyOp55
 70
     1
102
RTVSPropertyOp56
 70
     1
102
RTVSPropertyOp57
 70
     1
102
RTVSPost2010Prop28
280
     0
102
RTVSPost2010PropOp28
 70
     1
102
RTVSPost2010Prop29
280
     1
102
RTVSPost2010PropOp29
 70
     1
102
RTVSPost2010Prop30
280
     1
102
RTVSPost2010PropOp30
 70
     1
102
RTVSPost2010Prop31
280
     0
102
RTVSPost2010PropOp31
 70
     1
102
RTVSPost2010Prop32
280
     0
102
RTVSPost2010PropOp32
 70
     1
102
RTVSPost2010Prop33
280
     0
102
RTVSPost2010PropOp33
 70
     1
102
RTVSPost2010Prop34
280
     0
102
RTVSPost2010PropOp34
 70
     1
102
RTVSPost2010Prop35
280
     0
102
RTVSPost2010PropOp35
 70
     1
102
RTVSPost2010Prop36
280
     0
102
RTVSPost2010PropOp36
 70
     1
102
RTVSPost2010Prop37
 90
       50
102
RTVSPost2010PropOp37
 70
     1
102
RTVSPost2010Prop38
140
0.0
102
RTVSPost2010PropOp38
 70
     1
102
RTVSPost2010Prop39
140
1.0
102
RTVSPost2010PropOp39
 70
     1
102
RTVSPost2010Prop40
 90
        0
102
RTVSPost2010PropOp40
 70
     1
102
RTVSPost2010Prop41ColorIndex
 90
       18
102
RTVSPost2010Prop41ColorRGB
 90
        0
102
RTVSPost2010PropOp41
 70
     1
102
RTVSPost2010Prop42
 90
       50
102
RTVSPost2010PropOp42
 70
     1
102
RTVSPost2010Prop43
 90
        3
102
RTVSPost2010PropOp43
 70
     1
102
RTVSPost2010Prop44ColorIndex
 90
        5
102
RTVSPost2010Prop44ColorRGB
 90
      255
102
RTVSPost2010PropOp44
 70
     1
102
RTVSPost2010Prop45
280
     0
102
RTVSPost2010PropOp45
 70
     1
102
RTVSPost2010Prop46
 90
       50
102
RTVSPost2010PropOp46
 70
     1
102
RTVSPost2010Prop47
 90
       50
102
RTVSPost2010PropOp47
 70
     1
102
RTVSPost2010Prop48
 90
       50
102
RTVSPost2010PropOp48
 70
     1
102
RTVSPost2010Prop49
280
     0
102
RTVSPost2010PropOp49
 70
     1
102
RTVSPost2010Prop50
 90
       50
102
RTVSPost2010PropOp50
 70
     1
102
RTVSPost2010Prop51ColorIndex
 90
      256
102
RTVSPost2010Prop51ColorRGB
 90
-16777216
102
RTVSPost2010PropOp51
 70
     0
102
RTVSPost2010Prop52
140
1.0
102
RTVSPost2010PropOp52
 70
     0
102
RTVSPost2010Prop53
 90
        2
102
RTVSPost2010PropOp53
 70
     1
102
RTVSPost2010Prop54
  1
strokes_ogs.tif
102
RTVSPost2010PropOp54
 70
     1
102
RTVSPost2010Prop55
280
     0
102
RTVSPost2010PropOp55
 70
     1
102
RTVSPost2010Prop56
140
1.0
102
RTVSPost2010PropOp56
 70
     1
102
RTVSPost2010Prop57
140
1.0
102
RTVSPost2010PropOp57
 70
     1
  0
XRECORD
  5
18C
102
{ACAD_REACTORS
330
18B
102
}
330
18B
100
AcDbXrecord
280
     1
102
RTVSPropertyOp0
 70
     1
102
RTVSPropertyOp1
 70
     1
102
RTVSPropertyOp2
 70
     1
102
RTVSPropertyOp3
 70
     1
102
RTVSPropertyOp4
 70
     1
102
RTVSPropertyOp5
 70
     1
102
RTVSPropertyOp6
 70
     1
102
RTVSPropertyOp7
 70
     1
102
RTVSPropertyOp8
 70
     1
102
RTVSPropertyOp9
 70
     1
102
RTVSPropertyOp10
 70
     1
102
RTVSPropertyOp11
 70
     1
102
RTVSPropertyOp12
 70
     1
102
RTVSPropertyOp13
 70
     1
102
RTVSPropertyOp14
 70
     1
102
RTVSPropertyOp15
 70
     1
102
RTVSPropertyOp16
 70
     1
102
RTVSPropertyOp17
 70
     1
102
RTVSPropertyOp18
 70
     1
102
RTVSPropertyOp19
 70
     1
102
RTVSPropertyOp20
 70
     1
102
RTVSPropertyOp21
 70
     1
102
RTVSPropertyOp22
 70
     1
102
RTVSPropertyOp23
 70
     1
102
RTVSPropertyOp24
 70
     1
102
RTVSPropertyOp25
 70
     1
102
RTVSPropertyOp26
 70
     1
102
RTVSPropertyOp27
 70
     1
102
RTVSPropertyOp28
 70
     1
102
RTVSPropertyOp29
 70
     1
102
RTVSPropertyOp30
 70
     1
102
RTVSPropertyOp31
 70
     1
102
RTVSPropertyOp32
 70
     1
102
RTVSPropertyOp33
 70
     1
102
RTVSPropertyOp34
 70
     1
102
RTVSPropertyOp35
 70
     1
102
RTVSPropertyOp36
 70
     1
102
RTVSPropertyOp37
 70
     1
102
RTVSPropertyOp38
 70
     1
102
RTVSPropertyOp39
 70
     1
102
RTVSPropertyOp40
 70
     1
102
RTVSPropertyOp41
 70
     1
102
RTVSPropertyOp42
 70
     1
102
RTVSPropertyOp43
 70
     1
102
RTVSPropertyOp44
 70
     1
102
RTVSPropertyOp45
 70
     1
102
RTVSPropertyOp46
 70
     1
102
RTVSPropertyOp47
 70
     1
102
RTVSPropertyOp48
 70
     1
102
RTVSPropertyOp49
 70
     1
102
RTVSPropertyOp50
 70
     1
102
RTVSPropertyOp51
 70
     0
102
RTVSPropertyOp52
 70
     0
102
RTVSPropertyOp53
 70
     1
102
RTVSPropertyOp54
 70
     1
102
RTVSPropertyOp55
 70
     1
102
RTVSPropertyOp56
 70
     1
102
RTVSPropertyOp57
 70
     1
102
RTVSPost2010Prop28
280
     0
102
RTVSPost2010PropOp28
 70
     1
102
RTVSPost2010Prop29
280
     1
102
RTVSPost2010PropOp29
 70
     1
102
RTVSPost2010Prop30
280
     1
102
RTVSPost2010PropOp30
 70
     1
102
RTVSPost2010Prop31
280
     0
102
RTVSPost2010PropOp31
 70
     1
102
RTVSPost2010Prop32
280
     0
102
RTVSPost2010PropOp32
 70
     1
102
RTVSPost2010Prop33
280
     0
102
RTVSPost2010PropOp33
 70
     1
102
RTVSPost2010Prop34
280
     0
102
RTVSPost2010PropOp34
 70
     1
102
RTVSPost2010Prop35
280
     0
102
RTVSPost2010PropOp35
 70
     1
102
RTVSPost2010Prop36
280
     0
102
RTVSPost2010PropOp36
 70
     1
102
RTVSPost2010Prop37
 90
       50
102
RTVSPost2010PropOp37
 70
     1
102
RTVSPost2010Prop38
140
0.0
102
RTVSPost2010PropOp38
 70
     1
102
RTVSPost2010Prop39
140
1.0
102
RTVSPost2010PropOp39
 70
     1
102
RTVSPost2010Prop40
 90
        0
102
RTVSPost2010PropOp40
 70
     1
102
RTVSPost2010Prop41ColorIndex
 90
       18
102
RTVSPost2010Prop41ColorRGB
 90
        0
102
RTVSPost2010PropOp41
 70
     1
102
RTVSPost2010Prop42
 90
       50
102
RTVSPost2010PropOp42
 70
     1
102
RTVSPost2010Prop43
 90
        3
102
RTVSPost2010PropOp43
 70
     1
102
RTVSPost2010Prop44ColorIndex
 90
        5
102
RTVSPost2010Prop44ColorRGB
 90
      255
102
RTVSPost2010PropOp44
 70
     1
102
RTVSPost2010Prop45
280
     0
102
RTVSPost2010PropOp45
 70
     1
102
RTVSPost2010Prop46
 90
       50
102
RTVSPost2010PropOp46
 70
     1
102
RTVSPost2010Prop47
 90
       50
102
RTVSPost2010PropOp47
 70
     1
102
RTVSPost2010Prop48
 90
       50
102
RTVSPost2010PropOp48
 70
     1
102
RTVSPost2010Prop49
280
     0
102
RTVSPost2010PropOp49
 70
     1
102
RTVSPost2010Prop50
 90
       50
102
RTVSPost2010PropOp50
 70
     1
102
RTVSPost2010Prop51ColorIndex
 90
      256
102
RTVSPost2010Prop51ColorRGB
 90
-16777216
102
RTVSPost2010PropOp51
 70
     0
102
RTVSPost2010Prop52
140
1.0
102
RTVSPost2010PropOp52
 70
     0
102
RTVSPost2010Prop53
 90
        2
102
RTVSPost2010PropOp53
 70
     1
102
RTVSPost2010Prop54
  1
strokes_ogs.tif
102
RTVSPost2010PropOp54
 70
     1
102
RTVSPost2010Prop55
280
     0
102
RTVSPost2010PropOp55
 70
     1
102
RTVSPost2010Prop56
140
1.0
102
RTVSPost2010PropOp56
 70
     1
102
RTVSPost2010Prop57
140
1.0
102
RTVSPost2010PropOp57
 70
     1
  0
XRECORD
  5
18E
102
{ACAD_REACTORS
330
18D
102
}
330
18D
100
AcDbXrecord
280
     1
102
RTVSPropertyOp0
 70
     1
102
RTVSPropertyOp1
 70
     1
102
RTVSPropertyOp2
 70
     1
102
RTVSPropertyOp3
 70
     1
102
RTVSPropertyOp4
 70
     1
102
RTVSPropertyOp5
 70
     1
102
RTVSPropertyOp6
 70
     1
102
RTVSPropertyOp7
 70
     1
102
RTVSPropertyOp8
 70
     1
102
RTVSPropertyOp9
 70
     1
102
RTVSPropertyOp10
 70
     1
102
RTVSPropertyOp11
 70
     1
102
RTVSPropertyOp12
 70
     1
102
RTVSPropertyOp13
 70
     1
102
RTVSPropertyOp14
 70
     1
102
RTVSPropertyOp15
 70
     1
102
RTVSPropertyOp16
 70
     1
102
RTVSPropertyOp17
 70
     1
102
RTVSPropertyOp18
 70
     1
102
RTVSPropertyOp19
 70
     1
102
RTVSPropertyOp20
 70
     1
102
RTVSPropertyOp21
 70
     1
102
RTVSPropertyOp22
 70
     1
102
RTVSPropertyOp23
 70
     1
102
RTVSPropertyOp24
 70
     1
102
RTVSPropertyOp25
 70
     1
102
RTVSPropertyOp26
 70
     1
102
RTVSPropertyOp27
 70
     1
102
RTVSPropertyOp28
 70
     1
102
RTVSPropertyOp29
 70
     1
102
RTVSPropertyOp30
 70
     1
102
RTVSPropertyOp31
 70
     1
102
RTVSPropertyOp32
 70
     1
102
RTVSPropertyOp33
 70
     1
102
RTVSPropertyOp34
 70
     1
102
RTVSPropertyOp35
 70
     1
102
RTVSPropertyOp36
 70
     1
102
RTVSPropertyOp37
 70
     1
102
RTVSPropertyOp38
 70
     1
102
RTVSPropertyOp39
 70
     1
102
RTVSPropertyOp40
 70
     1
102
RTVSPropertyOp41
 70
     1
102
RTVSPropertyOp42
 70
     1
102
RTVSPropertyOp43
 70
     1
102
RTVSPropertyOp44
 70
     1
102
RTVSPropertyOp45
 70
     1
102
RTVSPropertyOp46
 70
     1
102
RTVSPropertyOp47
 70
     1
102
RTVSPropertyOp48
 70
     1
102
RTVSPropertyOp49
 70
     1
102
RTVSPropertyOp50
 70
     1
102
RTVSPropertyOp51
 70
     0
102
RTVSPropertyOp52
 70
     0
102
RTVSPropertyOp53
 70
     1
102
RTVSPropertyOp54
 70
     1
102
RTVSPropertyOp55
 70
     1
102
RTVSPropertyOp56
 70
     1
102
RTVSPropertyOp57
 70
     1
102
RTVSPost2010Prop28
280
     0
102
RTVSPost2010PropOp28
 70
     1
102
RTVSPost2010Prop29
280
     1
102
RTVSPost2010PropOp29
 70
     1
102
RTVSPost2010Prop30
280
     1
102
RTVSPost2010PropOp30
 70
     1
102
RTVSPost2010Prop31
280
     0
102
RTVSPost2010PropOp31
 70
     1
102
RTVSPost2010Prop32
280
     0
102
RTVSPost2010PropOp32
 70
     1
102
RTVSPost2010Prop33
280
     0
102
RTVSPost2010PropOp33
 70
     1
102
RTVSPost2010Prop34
280
     0
102
RTVSPost2010PropOp34
 70
     1
102
RTVSPost2010Prop35
280
     0
102
RTVSPost2010PropOp35
 70
     1
102
RTVSPost2010Prop36
280
     0
102
RTVSPost2010PropOp36
 70
     1
102
RTVSPost2010Prop37
 90
       50
102
RTVSPost2010PropOp37
 70
     1
102
RTVSPost2010Prop38
140
0.0
102
RTVSPost2010PropOp38
 70
     1
102
RTVSPost2010Prop39
140
1.0
102
RTVSPost2010PropOp39
 70
     1
102
RTVSPost2010Prop40
 90
        0
102
RTVSPost2010PropOp40
 70
     1
102
RTVSPost2010Prop41ColorIndex
 90
       18
102
RTVSPost2010Prop41ColorRGB
 90
        0
102
RTVSPost2010PropOp41
 70
     1
102
RTVSPost2010Prop42
 90
       50
102
RTVSPost2010PropOp42
 70
     1
102
RTVSPost2010Prop43
 90
        3
102
RTVSPost2010PropOp43
 70
     1
102
RTVSPost2010Prop44ColorIndex
 90
        5
102
RTVSPost2010Prop44ColorRGB
 90
      255
102
RTVSPost2010PropOp44
 70
     1
102
RTVSPost2010Prop45
280
     0
102
RTVSPost2010PropOp45
 70
     1
102
RTVSPost2010Prop46
 90
       50
102
RTVSPost2010PropOp46
 70
     1
102
RTVSPost2010Prop47
 90
       50
102
RTVSPost2010PropOp47
 70
     1
102
RTVSPost2010Prop48
 90
       50
102
RTVSPost2010PropOp48
 70
     1
102
RTVSPost2010Prop49
280
     0
102
RTVSPost2010PropOp49
 70
     1
102
RTVSPost2010Prop50
 90
       50
102
RTVSPost2010PropOp50
 70
     1
102
RTVSPost2010Prop51ColorIndex
 90
      256
102
RTVSPost2010Prop51ColorRGB
 90
-16777216
102
RTVSPost2010PropOp51
 70
     0
102
RTVSPost2010Prop52
140
1.0
102
RTVSPost2010PropOp52
 70
     0
102
RTVSPost2010Prop53
 90
        2
102
RTVSPost2010PropOp53
 70
     1
102
RTVSPost2010Prop54
  1
strokes_ogs.tif
102
RTVSPost2010PropOp54
 70
     1
102
RTVSPost2010Prop55
280
     0
102
RTVSPost2010PropOp55
 70
     1
102
RTVSPost2010Prop56
140
1.0
102
RTVSPost2010PropOp56
 70
     1
102
RTVSPost2010Prop57
140
1.0
102
RTVSPost2010PropOp57
 70
     1
  0
XRECORD
  5
190
102
{ACAD_REACTORS
330
18F
102
}
330
18F
100
AcDbXrecord
280
     1
102
RTVSPropertyOp0
 70
     1
102
RTVSPropertyOp1
 70
     1
102
RTVSPropertyOp2
 70
     1
102
RTVSPropertyOp3
 70
     1
102
RTVSPropertyOp4
 70
     1
102
RTVSPropertyOp5
 70
     1
102
RTVSPropertyOp6
 70
     1
102
RTVSPropertyOp7
 70
     1
102
RTVSPropertyOp8
 70
     1
102
RTVSPropertyOp9
 70
     1
102
RTVSPropertyOp10
 70
     1
102
RTVSPropertyOp11
 70
     1
102
RTVSPropertyOp12
 70
     1
102
RTVSPropertyOp13
 70
     1
102
RTVSPropertyOp14
 70
     1
102
RTVSPropertyOp15
 70
     1
102
RTVSPropertyOp16
 70
     1
102
RTVSPropertyOp17
 70
     1
102
RTVSPropertyOp18
 70
     1
102
RTVSPropertyOp19
 70
     1
102
RTVSPropertyOp20
 70
     1
102
RTVSPropertyOp21
 70
     1
102
RTVSPropertyOp22
 70
     1
102
RTVSPropertyOp23
 70
     1
102
RTVSPropertyOp24
 70
     1
102
RTVSPropertyOp25
 70
     1
102
RTVSPropertyOp26
 70
     1
102
RTVSPropertyOp27
 70
     1
102
RTVSPropertyOp28
 70
     1
102
RTVSPropertyOp29
 70
     1
102
RTVSPropertyOp30
 70
     1
102
RTVSPropertyOp31
 70
     1
102
RTVSPropertyOp32
 70
     1
102
RTVSPropertyOp33
 70
     1
102
RTVSPropertyOp34
 70
     1
102
RTVSPropertyOp35
 70
     1
102
RTVSPropertyOp36
 70
     1
102
RTVSPropertyOp37
 70
     1
102
RTVSPropertyOp38
 70
     1
102
RTVSPropertyOp39
 70
     1
102
RTVSPropertyOp40
 70
     1
102
RTVSPropertyOp41
 70
     1
102
RTVSPropertyOp42
 70
     1
102
RTVSPropertyOp43
 70
     1
102
RTVSPropertyOp44
 70
     1
102
RTVSPropertyOp45
 70
     1
102
RTVSPropertyOp46
 70
     1
102
RTVSPropertyOp47
 70
     1
102
RTVSPropertyOp48
 70
     1
102
RTVSPropertyOp49
 70
     1
102
RTVSPropertyOp50
 70
     1
102
RTVSPropertyOp51
 70
     0
102
RTVSPropertyOp52
 70
     0
102
RTVSPropertyOp53
 70
     1
102
RTVSPropertyOp54
 70
     1
102
RTVSPropertyOp55
 70
     1
102
RTVSPropertyOp56
 70
     1
102
RTVSPropertyOp57
 70
     1
102
RTVSPost2010Prop28
280
     0
102
RTVSPost2010PropOp28
 70
     1
102
RTVSPost2010Prop29
280
     1
102
RTVSPost2010PropOp29
 70
     1
102
RTVSPost2010Prop30
280
     1
102
RTVSPost2010PropOp30
 70
     1
102
RTVSPost2010Prop31
280
     0
102
RTVSPost2010PropOp31
 70
     1
102
RTVSPost2010Prop32
280
     0
102
RTVSPost2010PropOp32
 70
     1
102
RTVSPost2010Prop33
280
     0
102
RTVSPost2010PropOp33
 70
     1
102
RTVSPost2010Prop34
280
     0
102
RTVSPost2010PropOp34
 70
     1
102
RTVSPost2010Prop35
280
     0
102
RTVSPost2010PropOp35
 70
     1
102
RTVSPost2010Prop36
280
     0
102
RTVSPost2010PropOp36
 70
     1
102
RTVSPost2010Prop37
 90
       50
102
RTVSPost2010PropOp37
 70
     1
102
RTVSPost2010Prop38
140
0.0
102
RTVSPost2010PropOp38
 70
     1
102
RTVSPost2010Prop39
140
1.0
102
RTVSPost2010PropOp39
 70
     1
102
RTVSPost2010Prop40
 90
        0
102
RTVSPost2010PropOp40
 70
     1
102
RTVSPost2010Prop41ColorIndex
 90
       18
102
RTVSPost2010Prop41ColorRGB
 90
        0
102
RTVSPost2010PropOp41
 70
     1
102
RTVSPost2010Prop42
 90
       50
102
RTVSPost2010PropOp42
 70
     1
102
RTVSPost2010Prop43
 90
        3
102
RTVSPost2010PropOp43
 70
     1
102
RTVSPost2010Prop44ColorIndex
 90
        5
102
RTVSPost2010Prop44ColorRGB
 90
      255
102
RTVSPost2010PropOp44
 70
     1
102
RTVSPost2010Prop45
280
     0
102
RTVSPost2010PropOp45
 70
     1
102
RTVSPost2010Prop46
 90
       50
102
RTVSPost2010PropOp46
 70
     1
102
RTVSPost2010Prop47
 90
       50
102
RTVSPost2010PropOp47
 70
     1
102
RTVSPost2010Prop48
 90
       50
102
RTVSPost2010PropOp48
 70
     1
102
RTVSPost2010Prop49
280
     0
102
RTVSPost2010PropOp49
 70
     1
102
RTVSPost2010Prop50
 90
       50
102
RTVSPost2010PropOp50
 70
     1
102
RTVSPost2010Prop51ColorIndex
 90
      256
102
RTVSPost2010Prop51ColorRGB
 90
-16777216
102
RTVSPost2010PropOp51
 70
     0
102
RTVSPost2010Prop52
140
1.0
102
RTVSPost2010PropOp52
 70
     0
102
RTVSPost2010Prop53
 90
        2
102
RTVSPost2010PropOp53
 70
     1
102
RTVSPost2010Prop54
  1
strokes_ogs.tif
102
RTVSPost2010PropOp54
 70
     1
102
RTVSPost2010Prop55
280
     0
102
RTVSPost2010PropOp55
 70
     1
102
RTVSPost2010Prop56
140
1.0
102
RTVSPost2010PropOp56
 70
     1
102
RTVSPost2010Prop57
140
1.0
102
RTVSPost2010PropOp57
 70
     1
  0
XRECORD
  5
192
102
{ACAD_REACTORS
330
191
102
}
330
191
100
AcDbXrecord
280
     1
102
RTVSPropertyOp0
 70
     1
102
RTVSPropertyOp1
 70
     1
102
RTVSPropertyOp2
 70
     1
102
RTVSPropertyOp3
 70
     1
102
RTVSPropertyOp4
 70
     1
102
RTVSPropertyOp5
 70
     1
102
RTVSPropertyOp6
 70
     1
102
RTVSPropertyOp7
 70
     1
102
RTVSPropertyOp8
 70
     1
102
RTVSPropertyOp9
 70
     1
102
RTVSPropertyOp10
 70
     1
102
RTVSPropertyOp11
 70
     1
102
RTVSPropertyOp12
 70
     1
102
RTVSPropertyOp13
 70
     1
102
RTVSPropertyOp14
 70
     1
102
RTVSPropertyOp15
 70
     1
102
RTVSPropertyOp16
 70
     1
102
RTVSPropertyOp17
 70
     1
102
RTVSPropertyOp18
 70
     1
102
RTVSPropertyOp19
 70
     1
102
RTVSPropertyOp20
 70
     1
102
RTVSPropertyOp21
 70
     1
102
RTVSPropertyOp22
 70
     1
102
RTVSPropertyOp23
 70
     1
102
RTVSPropertyOp24
 70
     1
102
RTVSPropertyOp25
 70
     1
102
RTVSPropertyOp26
 70
     1
102
RTVSPropertyOp27
 70
     1
102
RTVSPropertyOp28
 70
     1
102
RTVSPropertyOp29
 70
     1
102
RTVSPropertyOp30
 70
     1
102
RTVSPropertyOp31
 70
     1
102
RTVSPropertyOp32
 70
     1
102
RTVSPropertyOp33
 70
     1
102
RTVSPropertyOp34
 70
     1
102
RTVSPropertyOp35
 70
     1
102
RTVSPropertyOp36
 70
     1
102
RTVSPropertyOp37
 70
     1
102
RTVSPropertyOp38
 70
     1
102
RTVSPropertyOp39
 70
     1
102
RTVSPropertyOp40
 70
     1
102
RTVSPropertyOp41
 70
     1
102
RTVSPropertyOp42
 70
     1
102
RTVSPropertyOp43
 70
     1
102
RTVSPropertyOp44
 70
     1
102
RTVSPropertyOp45
 70
     1
102
RTVSPropertyOp46
 70
     1
102
RTVSPropertyOp47
 70
     1
102
RTVSPropertyOp48
 70
     1
102
RTVSPropertyOp49
 70
     1
102
RTVSPropertyOp50
 70
     1
102
RTVSPropertyOp51
 70
     0
102
RTVSPropertyOp52
 70
     0
102
RTVSPropertyOp53
 70
     1
102
RTVSPropertyOp54
 70
     1
102
RTVSPropertyOp55
 70
     1
102
RTVSPropertyOp56
 70
     1
102
RTVSPropertyOp57
 70
     1
102
RTVSPost2010Prop28
280
     0
102
RTVSPost2010PropOp28
 70
     1
102
RTVSPost2010Prop29
280
     1
102
RTVSPost2010PropOp29
 70
     1
102
RTVSPost2010Prop30
280
     1
102
RTVSPost2010PropOp30
 70
     1
102
RTVSPost2010Prop31
280
     0
102
RTVSPost2010PropOp31
 70
     1
102
RTVSPost2010Prop32
280
     0
102
RTVSPost2010PropOp32
 70
     1
102
RTVSPost2010Prop33
280
     0
102
RTVSPost2010PropOp33
 70
     1
102
RTVSPost2010Prop34
280
     0
102
RTVSPost2010PropOp34
 70
     1
102
RTVSPost2010Prop35
280
     0
102
RTVSPost2010PropOp35
 70
     1
102
RTVSPost2010Prop36
280
     0
102
RTVSPost2010PropOp36
 70
     1
102
RTVSPost2010Prop37
 90
       50
102
RTVSPost2010PropOp37
 70
     1
102
RTVSPost2010Prop38
140
0.0
102
RTVSPost2010PropOp38
 70
     1
102
RTVSPost2010Prop39
140
1.0
102
RTVSPost2010PropOp39
 70
     1
102
RTVSPost2010Prop40
 90
        0
102
RTVSPost2010PropOp40
 70
     1
102
RTVSPost2010Prop41ColorIndex
 90
       18
102
RTVSPost2010Prop41ColorRGB
 90
        0
102
RTVSPost2010PropOp41
 70
     1
102
RTVSPost2010Prop42
 90
       50
102
RTVSPost2010PropOp42
 70
     1
102
RTVSPost2010Prop43
 90
        3
102
RTVSPost2010PropOp43
 70
     1
102
RTVSPost2010Prop44ColorIndex
 90
        5
102
RTVSPost2010Prop44ColorRGB
 90
      255
102
RTVSPost2010PropOp44
 70
     1
102
RTVSPost2010Prop45
280
     0
102
RTVSPost2010PropOp45
 70
     1
102
RTVSPost2010Prop46
 90
       50
102
RTVSPost2010PropOp46
 70
     1
102
RTVSPost2010Prop47
 90
       50
102
RTVSPost2010PropOp47
 70
     1
102
RTVSPost2010Prop48
 90
       50
102
RTVSPost2010PropOp48
 70
     1
102
RTVSPost2010Prop49
280
     0
102
RTVSPost2010PropOp49
 70
     1
102
RTVSPost2010Prop50
 90
       50
102
RTVSPost2010PropOp50
 70
     1
102
RTVSPost2010Prop51ColorIndex
 90
      256
102
RTVSPost2010Prop51ColorRGB
 90
-16777216
102
RTVSPost2010PropOp51
 70
     0
102
RTVSPost2010Prop52
140
1.0
102
RTVSPost2010PropOp52
 70
     0
102
RTVSPost2010Prop53
 90
        2
102
RTVSPost2010PropOp53
 70
     1
102
RTVSPost2010Prop54
  1
strokes_ogs.tif
102
RTVSPost2010PropOp54
 70
     1
102
RTVSPost2010Prop55
280
     0
102
RTVSPost2010PropOp55
 70
     1
102
RTVSPost2010Prop56
140
1.0
102
RTVSPost2010PropOp56
 70
     1
102
RTVSPost2010Prop57
140
1.0
102
RTVSPost2010PropOp57
 70
     1
  0
XRECORD
  5
198
102
{ACAD_REACTORS
330
197
102
}
330
197
100
AcDbXrecord
280
     1
102
RTVSPropertyOp0
 70
     1
102
RTVSPropertyOp1
 70
     1
102
RTVSPropertyOp2
 70
     1
102
RTVSPropertyOp3
 70
     1
102
RTVSPropertyOp4
 70
     1
102
RTVSPropertyOp5
 70
     1
102
RTVSPropertyOp6
 70
     1
102
RTVSPropertyOp7
 70
     1
102
RTVSPropertyOp8
 70
     1
102
RTVSPropertyOp9
 70
     1
102
RTVSPropertyOp10
 70
     1
102
RTVSPropertyOp11
 70
     1
102
RTVSPropertyOp12
 70
     1
102
RTVSPropertyOp13
 70
     1
102
RTVSPropertyOp14
 70
     1
102
RTVSPropertyOp15
 70
     1
102
RTVSPropertyOp16
 70
     1
102
RTVSPropertyOp17
 70
     1
102
RTVSPropertyOp18
 70
     1
102
RTVSPropertyOp19
 70
     1
102
RTVSPropertyOp20
 70
     1
102
RTVSPropertyOp21
 70
     1
102
RTVSPropertyOp22
 70
     1
102
RTVSPropertyOp23
 70
     1
102
RTVSPropertyOp24
 70
     1
102
RTVSPropertyOp25
 70
     1
102
RTVSPropertyOp26
 70
     1
102
RTVSPropertyOp27
 70
     1
102
RTVSPropertyOp28
 70
     1
102
RTVSPropertyOp29
 70
     1
102
RTVSPropertyOp30
 70
     1
102
RTVSPropertyOp31
 70
     1
102
RTVSPropertyOp32
 70
     1
102
RTVSPropertyOp33
 70
     1
102
RTVSPropertyOp34
 70
     1
102
RTVSPropertyOp35
 70
     1
102
RTVSPropertyOp36
 70
     1
102
RTVSPropertyOp37
 70
     1
102
RTVSPropertyOp38
 70
     1
102
RTVSPropertyOp39
 70
     1
102
RTVSPropertyOp40
 70
     1
102
RTVSPropertyOp41
 70
     1
102
RTVSPropertyOp42
 70
     1
102
RTVSPropertyOp43
 70
     1
102
RTVSPropertyOp44
 70
     1
102
RTVSPropertyOp45
 70
     1
102
RTVSPropertyOp46
 70
     1
102
RTVSPropertyOp47
 70
     1
102
RTVSPropertyOp48
 70
     1
102
RTVSPropertyOp49
 70
     1
102
RTVSPropertyOp50
 70
     1
102
RTVSPropertyOp51
 70
     0
102
RTVSPropertyOp52
 70
     0
102
RTVSPropertyOp53
 70
     1
102
RTVSPropertyOp54
 70
     1
102
RTVSPropertyOp55
 70
     1
102
RTVSPropertyOp56
 70
     1
102
RTVSPropertyOp57
 70
     1
102
RTVSPost2010Prop28
280
     0
102
RTVSPost2010PropOp28
 70
     1
102
RTVSPost2010Prop29
280
     1
102
RTVSPost2010PropOp29
 70
     1
102
RTVSPost2010Prop30
280
     1
102
RTVSPost2010PropOp30
 70
     1
102
RTVSPost2010Prop31
280
     0
102
RTVSPost2010PropOp31
 70
     1
102
RTVSPost2010Prop32
280
     0
102
RTVSPost2010PropOp32
 70
     1
102
RTVSPost2010Prop33
280
     0
102
RTVSPost2010PropOp33
 70
     1
102
RTVSPost2010Prop34
280
     0
102
RTVSPost2010PropOp34
 70
     1
102
RTVSPost2010Prop35
280
     0
102
RTVSPost2010PropOp35
 70
     1
102
RTVSPost2010Prop36
280
     0
102
RTVSPost2010PropOp36
 70
     1
102
RTVSPost2010Prop37
 90
       50
102
RTVSPost2010PropOp37
 70
     1
102
RTVSPost2010Prop38
140
0.0
102
RTVSPost2010PropOp38
 70
     1
102
RTVSPost2010Prop39
140
1.0
102
RTVSPost2010PropOp39
 70
     1
102
RTVSPost2010Prop40
 90
        0
102
RTVSPost2010PropOp40
 70
     1
102
RTVSPost2010Prop41ColorIndex
 90
       18
102
RTVSPost2010Prop41ColorRGB
 90
        0
102
RTVSPost2010PropOp41
 70
     1
102
RTVSPost2010Prop42
 90
       50
102
RTVSPost2010PropOp42
 70
     1
102
RTVSPost2010Prop43
 90
        3
102
RTVSPost2010PropOp43
 70
     1
102
RTVSPost2010Prop44ColorIndex
 90
        5
102
RTVSPost2010Prop44ColorRGB
 90
      255
102
RTVSPost2010PropOp44
 70
     1
102
RTVSPost2010Prop45
280
     0
102
RTVSPost2010PropOp45
 70
     1
102
RTVSPost2010Prop46
 90
       50
102
RTVSPost2010PropOp46
 70
     1
102
RTVSPost2010Prop47
 90
       50
102
RTVSPost2010PropOp47
 70
     1
102
RTVSPost2010Prop48
 90
       50
102
RTVSPost2010PropOp48
 70
     1
102
RTVSPost2010Prop49
280
     0
102
RTVSPost2010PropOp49
 70
     1
102
RTVSPost2010Prop50
 90
       50
102
RTVSPost2010PropOp50
 70
     1
102
RTVSPost2010Prop51ColorIndex
 90
      256
102
RTVSPost2010Prop51ColorRGB
 90
-16777216
102
RTVSPost2010PropOp51
 70
     0
102
RTVSPost2010Prop52
140
1.0
102
RTVSPost2010PropOp52
 70
     0
102
RTVSPost2010Prop53
 90
        2
102
RTVSPost2010PropOp53
 70
     1
102
RTVSPost2010Prop54
  1
strokes_ogs.tif
102
RTVSPost2010PropOp54
 70
     1
102
RTVSPost2010Prop55
280
     0
102
RTVSPost2010PropOp55
 70
     1
102
RTVSPost2010Prop56
140
1.0
102
RTVSPost2010PropOp56
 70
     1
102
RTVSPost2010Prop57
140
1.0
102
RTVSPost2010PropOp57
 70
     1
  0
XRECORD
  5
1AC
102
{ACAD_REACTORS
330
1AB
102
}
330
1AB
100
AcDbXrecord
280
     1
102
RTVSPropertyOp0
 70
     0
102
RTVSPropertyOp1
 70
     0
102
RTVSPropertyOp2
 70
     0
102
RTVSPropertyOp3
 70
     0
102
RTVSPropertyOp4
 70
     0
102
RTVSPropertyOp5
 70
     0
102
RTVSPropertyOp6
 70
     0
102
RTVSPropertyOp7
 70
     0
102
RTVSPropertyOp8
 70
     0
102
RTVSPropertyOp9
 70
     0
102
RTVSPropertyOp10
 70
     0
102
RTVSPropertyOp11
 70
     0
102
RTVSPropertyOp12
 70
     0
102
RTVSPropertyOp13
 70
     0
102
RTVSPropertyOp14
 70
     2
102
RTVSPropertyOp15
 70
     0
102
RTVSPropertyOp16
 70
     0
102
RTVSPropertyOp17
 70
     0
102
RTVSPropertyOp18
 70
     0
102
RTVSPropertyOp19
 70
     0
102
RTVSPropertyOp20
 70
     0
102
RTVSPropertyOp21
 70
     0
102
RTVSPropertyOp22
 70
     0
102
RTVSPropertyOp23
 70
     0
102
RTVSPropertyOp24
 70
     0
102
RTVSPropertyOp25
 70
     0
102
RTVSPropertyOp26
 70
     0
102
RTVSPropertyOp27
 70
     0
102
RTVSPropertyOp28
 70
     0
102
RTVSPropertyOp29
 70
     0
102
RTVSPropertyOp30
 70
     0
102
RTVSPropertyOp31
 70
     0
102
RTVSPropertyOp32
 70
     0
102
RTVSPropertyOp33
 70
     0
102
RTVSPropertyOp34
 70
     0
102
RTVSPropertyOp35
 70
     0
102
RTVSPropertyOp36
 70
     0
102
RTVSPropertyOp37
 70
     0
102
RTVSPropertyOp38
 70
     0
102
RTVSPropertyOp39
 70
     0
102
RTVSPropertyOp40
 70
     0
102
RTVSPropertyOp41
 70
     0
102
RTVSPropertyOp42
 70
     0
102
RTVSPropertyOp43
 70
     0
102
RTVSPropertyOp44
 70
     0
102
RTVSPropertyOp45
 70
     0
102
RTVSPropertyOp46
 70
     0
102
RTVSPropertyOp47
 70
     0
102
RTVSPropertyOp48
 70
     0
102
RTVSPropertyOp49
 70
     0
102
RTVSPropertyOp50
 70
     0
102
RTVSPropertyOp51
 70
     0
102
RTVSPropertyOp52
 70
     0
102
RTVSPropertyOp53
 70
     0
102
RTVSPropertyOp54
 70
     0
102
RTVSPropertyOp55
 70
     0
102
RTVSPropertyOp56
 70
     0
102
RTVSPropertyOp57
 70
     0
102
RTVSPost2010Prop28
280
     0
102
RTVSPost2010PropOp28
 70
     0
102
RTVSPost2010Prop29
280
     1
102
RTVSPost2010PropOp29
 70
     0
102
RTVSPost2010Prop30
280
     1
102
RTVSPost2010PropOp30
 70
     0
102
RTVSPost2010Prop31
280
     0
102
RTVSPost2010PropOp31
 70
     0
102
RTVSPost2010Prop32
280
     0
102
RTVSPost2010PropOp32
 70
     0
102
RTVSPost2010Prop33
280
     0
102
RTVSPost2010PropOp33
 70
     0
102
RTVSPost2010Prop34
280
     0
102
RTVSPost2010PropOp34
 70
     0
102
RTVSPost2010Prop35
280
     0
102
RTVSPost2010PropOp35
 70
     0
102
RTVSPost2010Prop36
280
     0
102
RTVSPost2010PropOp36
 70
     0
102
RTVSPost2010Prop37
 90
       50
102
RTVSPost2010PropOp37
 70
     0
102
RTVSPost2010Prop38
140
0.0
102
RTVSPost2010PropOp38
 70
     0
102
RTVSPost2010Prop39
140
1.0
102
RTVSPost2010PropOp39
 70
     0
102
RTVSPost2010Prop40
 90
        0
102
RTVSPost2010PropOp40
 70
     0
102
RTVSPost2010Prop41ColorIndex
 90
       18
102
RTVSPost2010Prop41ColorRGB
 90
        0
102
RTVSPost2010PropOp41
 70
     0
102
RTVSPost2010Prop42
 90
       50
102
RTVSPost2010PropOp42
 70
     0
102
RTVSPost2010Prop43
 90
        3
102
RTVSPost2010PropOp43
 70
     0
102
RTVSPost2010Prop44ColorIndex
 90
        5
102
RTVSPost2010Prop44ColorRGB
 90
      255
102
RTVSPost2010PropOp44
 70
     0
102
RTVSPost2010Prop45
280
     0
102
RTVSPost2010PropOp45
 70
     0
102
RTVSPost2010Prop46
 90
       50
102
RTVSPost2010PropOp46
 70
     0
102
RTVSPost2010Prop47
 90
       50
102
RTVSPost2010PropOp47
 70
     0
102
RTVSPost2010Prop48
 90
       50
102
RTVSPost2010PropOp48
 70
     0
102
RTVSPost2010Prop49
280
     0
102
RTVSPost2010PropOp49
 70
     0
102
RTVSPost2010Prop50
 90
       50
102
RTVSPost2010PropOp50
 70
     0
102
RTVSPost2010Prop51ColorIndex
 90
      256
102
RTVSPost2010Prop51ColorRGB
 90
-16777216
102
RTVSPost2010PropOp51
 70
     0
102
RTVSPost2010Prop52
140
1.0
102
RTVSPost2010PropOp52
 70
     0
102
RTVSPost2010Prop53
 90
        2
102
RTVSPost2010PropOp53
 70
     0
102
RTVSPost2010Prop54
  1
strokes_ogs.tif
102
RTVSPost2010PropOp54
 70
     0
102
RTVSPost2010Prop55
280
     0
102
RTVSPost2010PropOp55
 70
     0
102
RTVSPost2010Prop56
140
1.0
102
RTVSPost2010PropOp56
 70
     0
102
RTVSPost2010Prop57
140
1.0
102
RTVSPost2010PropOp57
 70
     0
  0
XRECORD
  5
1A6
102
{ACAD_REACTORS
330
1A5
102
}
330
1A5
100
AcDbXrecord
280
     1
102
RTVSPropertyOp0
 70
     1
102
RTVSPropertyOp1
 70
     1
102
RTVSPropertyOp2
 70
     1
102
RTVSPropertyOp3
 70
     1
102
RTVSPropertyOp4
 70
     1
102
RTVSPropertyOp5
 70
     1
102
RTVSPropertyOp6
 70
     1
102
RTVSPropertyOp7
 70
     1
102
RTVSPropertyOp8
 70
     1
102
RTVSPropertyOp9
 70
     1
102
RTVSPropertyOp10
 70
     1
102
RTVSPropertyOp11
 70
     1
102
RTVSPropertyOp12
 70
     1
102
RTVSPropertyOp13
 70
     1
102
RTVSPropertyOp14
 70
     1
102
RTVSPropertyOp15
 70
     1
102
RTVSPropertyOp16
 70
     1
102
RTVSPropertyOp17
 70
     1
102
RTVSPropertyOp18
 70
     1
102
RTVSPropertyOp19
 70
     1
102
RTVSPropertyOp20
 70
     1
102
RTVSPropertyOp21
 70
     1
102
RTVSPropertyOp22
 70
     1
102
RTVSPropertyOp23
 70
     1
102
RTVSPropertyOp24
 70
     1
102
RTVSPropertyOp25
 70
     1
102
RTVSPropertyOp26
 70
     1
102
RTVSPropertyOp27
 70
     1
102
RTVSPropertyOp28
 70
     1
102
RTVSPropertyOp29
 70
     1
102
RTVSPropertyOp30
 70
     1
102
RTVSPropertyOp31
 70
     1
102
RTVSPropertyOp32
 70
     1
102
RTVSPropertyOp33
 70
     1
102
RTVSPropertyOp34
 70
     1
102
RTVSPropertyOp35
 70
     1
102
RTVSPropertyOp36
 70
     1
102
RTVSPropertyOp37
 70
     1
102
RTVSPropertyOp38
 70
     1
102
RTVSPropertyOp39
 70
     1
102
RTVSPropertyOp40
 70
     1
102
RTVSPropertyOp41
 70
     1
102
RTVSPropertyOp42
 70
     1
102
RTVSPropertyOp43
 70
     1
102
RTVSPropertyOp44
 70
     1
102
RTVSPropertyOp45
 70
     1
102
RTVSPropertyOp46
 70
     1
102
RTVSPropertyOp47
 70
     1
102
RTVSPropertyOp48
 70
     1
102
RTVSPropertyOp49
 70
     1
102
RTVSPropertyOp50
 70
     1
102
RTVSPropertyOp51
 70
     0
102
RTVSPropertyOp52
 70
     0
102
RTVSPropertyOp53
 70
     1
102
RTVSPropertyOp54
 70
     1
102
RTVSPropertyOp55
 70
     1
102
RTVSPropertyOp56
 70
     1
102
RTVSPropertyOp57
 70
     1
102
RTVSPost2010Prop28
280
     0
102
RTVSPost2010PropOp28
 70
     1
102
RTVSPost2010Prop29
280
     1
102
RTVSPost2010PropOp29
 70
     1
102
RTVSPost2010Prop30
280
     1
102
RTVSPost2010PropOp30
 70
     1
102
RTVSPost2010Prop31
280
     0
102
RTVSPost2010PropOp31
 70
     1
102
RTVSPost2010Prop32
280
     0
102
RTVSPost2010PropOp32
 70
     1
102
RTVSPost2010Prop33
280
     0
102
RTVSPost2010PropOp33
 70
     1
102
RTVSPost2010Prop34
280
     0
102
RTVSPost2010PropOp34
 70
     1
102
RTVSPost2010Prop35
280
     0
102
RTVSPost2010PropOp35
 70
     1
102
RTVSPost2010Prop36
280
     0
102
RTVSPost2010PropOp36
 70
     1
102
RTVSPost2010Prop37
 90
       50
102
RTVSPost2010PropOp37
 70
     1
102
RTVSPost2010Prop38
140
0.0
102
RTVSPost2010PropOp38
 70
     1
102
RTVSPost2010Prop39
140
1.0
102
RTVSPost2010PropOp39
 70
     1
102
RTVSPost2010Prop40
 90
        0
102
RTVSPost2010PropOp40
 70
     1
102
RTVSPost2010Prop41ColorIndex
 90
       18
102
RTVSPost2010Prop41ColorRGB
 90
        0
102
RTVSPost2010PropOp41
 70
     1
102
RTVSPost2010Prop42
 90
       50
102
RTVSPost2010PropOp42
 70
     1
102
RTVSPost2010Prop43
 90
        3
102
RTVSPost2010PropOp43
 70
     1
102
RTVSPost2010Prop44ColorIndex
 90
        5
102
RTVSPost2010Prop44ColorRGB
 90
      255
102
RTVSPost2010PropOp44
 70
     1
102
RTVSPost2010Prop45
280
     0
102
RTVSPost2010PropOp45
 70
     1
102
RTVSPost2010Prop46
 90
       50
102
RTVSPost2010PropOp46
 70
     1
102
RTVSPost2010Prop47
 90
       50
102
RTVSPost2010PropOp47
 70
     1
102
RTVSPost2010Prop48
 90
       50
102
RTVSPost2010PropOp48
 70
     1
102
RTVSPost2010Prop49
280
     0
102
RTVSPost2010PropOp49
 70
     1
102
RTVSPost2010Prop50
 90
       50
102
RTVSPost2010PropOp50
 70
     1
102
RTVSPost2010Prop51ColorIndex
 90
      256
102
RTVSPost2010Prop51ColorRGB
 90
-16777216
102
RTVSPost2010PropOp51
 70
     0
102
RTVSPost2010Prop52
140
1.0
102
RTVSPost2010PropOp52
 70
     0
102
RTVSPost2010Prop53
 90
        2
102
RTVSPost2010PropOp53
 70
     1
102
RTVSPost2010Prop54
  1
strokes_ogs.tif
102
RTVSPost2010PropOp54
 70
     1
102
RTVSPost2010Prop55
280
     0
102
RTVSPost2010PropOp55
 70
     1
102
RTVSPost2010Prop56
140
1.0
102
RTVSPost2010PropOp56
 70
     1
102
RTVSPost2010Prop57
140
1.0
102
RTVSPost2010PropOp57
 70
     1
  0
XRECORD
  5
1AE
102
{ACAD_REACTORS
330
1AD
102
}
330
1AD
100
AcDbXrecord
280
     1
102
RTVSPropertyOp0
 70
     0
102
RTVSPropertyOp1
 70
     0
102
RTVSPropertyOp2
 70
     0
102
RTVSPropertyOp3
 70
     0
102
RTVSPropertyOp4
 70
     0
102
RTVSPropertyOp5
 70
     0
102
RTVSPropertyOp6
 70
     0
102
RTVSPropertyOp7
 70
     0
102
RTVSPropertyOp8
 70
     0
102
RTVSPropertyOp9
 70
     0
102
RTVSPropertyOp10
 70
     0
102
RTVSPropertyOp11
 70
     0
102
RTVSPropertyOp12
 70
     0
102
RTVSPropertyOp13
 70
     0
102
RTVSPropertyOp14
 70
     2
102
RTVSPropertyOp15
 70
     0
102
RTVSPropertyOp16
 70
     0
102
RTVSPropertyOp17
 70
     0
102
RTVSPropertyOp18
 70
     0
102
RTVSPropertyOp19
 70
     0
102
RTVSPropertyOp20
 70
     0
102
RTVSPropertyOp21
 70
     0
102
RTVSPropertyOp22
 70
     0
102
RTVSPropertyOp23
 70
     0
102
RTVSPropertyOp24
 70
     0
102
RTVSPropertyOp25
 70
     0
102
RTVSPropertyOp26
 70
     0
102
RTVSPropertyOp27
 70
     0
102
RTVSPropertyOp28
 70
     0
102
RTVSPropertyOp29
 70
     0
102
RTVSPropertyOp30
 70
     0
102
RTVSPropertyOp31
 70
     0
102
RTVSPropertyOp32
 70
     0
102
RTVSPropertyOp33
 70
     0
102
RTVSPropertyOp34
 70
     0
102
RTVSPropertyOp35
 70
     0
102
RTVSPropertyOp36
 70
     0
102
RTVSPropertyOp37
 70
     0
102
RTVSPropertyOp38
 70
     0
102
RTVSPropertyOp39
 70
     0
102
RTVSPropertyOp40
 70
     0
102
RTVSPropertyOp41
 70
     0
102
RTVSPropertyOp42
 70
     0
102
RTVSPropertyOp43
 70
     0
102
RTVSPropertyOp44
 70
     0
102
RTVSPropertyOp45
 70
     0
102
RTVSPropertyOp46
 70
     0
102
RTVSPropertyOp47
 70
     0
102
RTVSPropertyOp48
 70
     0
102
RTVSPropertyOp49
 70
     0
102
RTVSPropertyOp50
 70
     0
102
RTVSPropertyOp51
 70
     0
102
RTVSPropertyOp52
 70
     0
102
RTVSPropertyOp53
 70
     0
102
RTVSPropertyOp54
 70
     0
102
RTVSPropertyOp55
 70
     0
102
RTVSPropertyOp56
 70
     0
102
RTVSPropertyOp57
 70
     0
102
RTVSPost2010Prop28
280
     0
102
RTVSPost2010PropOp28
 70
     0
102
RTVSPost2010Prop29
280
     1
102
RTVSPost2010PropOp29
 70
     0
102
RTVSPost2010Prop30
280
     1
102
RTVSPost2010PropOp30
 70
     0
102
RTVSPost2010Prop31
280
     0
102
RTVSPost2010PropOp31
 70
     0
102
RTVSPost2010Prop32
280
     0
102
RTVSPost2010PropOp32
 70
     0
102
RTVSPost2010Prop33
280
     0
102
RTVSPost2010PropOp33
 70
     0
102
RTVSPost2010Prop34
280
     0
102
RTVSPost2010PropOp34
 70
     0
102
RTVSPost2010Prop35
280
     0
102
RTVSPost2010PropOp35
 70
     0
102
RTVSPost2010Prop36
280
     0
102
RTVSPost2010PropOp36
 70
     0
102
RTVSPost2010Prop37
 90
       50
102
RTVSPost2010PropOp37
 70
     0
102
RTVSPost2010Prop38
140
0.0
102
RTVSPost2010PropOp38
 70
     0
102
RTVSPost2010Prop39
140
1.0
102
RTVSPost2010PropOp39
 70
     0
102
RTVSPost2010Prop40
 90
        0
102
RTVSPost2010PropOp40
 70
     0
102
RTVSPost2010Prop41ColorIndex
 90
       18
102
RTVSPost2010Prop41ColorRGB
 90
        0
102
RTVSPost2010PropOp41
 70
     0
102
RTVSPost2010Prop42
 90
       50
102
RTVSPost2010PropOp42
 70
     0
102
RTVSPost2010Prop43
 90
        3
102
RTVSPost2010PropOp43
 70
     0
102
RTVSPost2010Prop44ColorIndex
 90
        5
102
RTVSPost2010Prop44ColorRGB
 90
      255
102
RTVSPost2010PropOp44
 70
     0
102
RTVSPost2010Prop45
280
     0
102
RTVSPost2010PropOp45
 70
     0
102
RTVSPost2010Prop46
 90
       50
102
RTVSPost2010PropOp46
 70
     0
102
RTVSPost2010Prop47
 90
       50
102
RTVSPost2010PropOp47
 70
     0
102
RTVSPost2010Prop48
 90
       50
102
RTVSPost2010PropOp48
 70
     0
102
RTVSPost2010Prop49
280
     0
102
RTVSPost2010PropOp49
 70
     0
102
RTVSPost2010Prop50
 90
       50
102
RTVSPost2010PropOp50
 70
     0
102
RTVSPost2010Prop51ColorIndex
 90
      256
102
RTVSPost2010Prop51ColorRGB
 90
-16777216
102
RTVSPost2010PropOp51
 70
     0
102
RTVSPost2010Prop52
140
1.0
102
RTVSPost2010PropOp52
 70
     0
102
RTVSPost2010Prop53
 90
        2
102
RTVSPost2010PropOp53
 70
     0
102
RTVSPost2010Prop54
  1
strokes_ogs.tif
102
RTVSPost2010PropOp54
 70
     0
102
RTVSPost2010Prop55
280
     0
102
RTVSPost2010PropOp55
 70
     0
102
RTVSPost2010Prop56
140
1.0
102
RTVSPost2010PropOp56
 70
     0
102
RTVSPost2010Prop57
140
1.0
102
RTVSPost2010PropOp57
 70
     0
  0
XRECORD
  5
19C
102
{ACAD_REACTORS
330
19B
102
}
330
19B
100
AcDbXrecord
280
     1
102
RTVSPropertyOp0
 70
     1
102
RTVSPropertyOp1
 70
     1
102
RTVSPropertyOp2
 70
     1
102
RTVSPropertyOp3
 70
     1
102
RTVSPropertyOp4
 70
     1
102
RTVSPropertyOp5
 70
     1
102
RTVSPropertyOp6
 70
     1
102
RTVSPropertyOp7
 70
     1
102
RTVSPropertyOp8
 70
     1
102
RTVSPropertyOp9
 70
     1
102
RTVSPropertyOp10
 70
     1
102
RTVSPropertyOp11
 70
     1
102
RTVSPropertyOp12
 70
     1
102
RTVSPropertyOp13
 70
     1
102
RTVSPropertyOp14
 70
     1
102
RTVSPropertyOp15
 70
     1
102
RTVSPropertyOp16
 70
     1
102
RTVSPropertyOp17
 70
     1
102
RTVSPropertyOp18
 70
     1
102
RTVSPropertyOp19
 70
     1
102
RTVSPropertyOp20
 70
     1
102
RTVSPropertyOp21
 70
     1
102
RTVSPropertyOp22
 70
     1
102
RTVSPropertyOp23
 70
     1
102
RTVSPropertyOp24
 70
     1
102
RTVSPropertyOp25
 70
     1
102
RTVSPropertyOp26
 70
     1
102
RTVSPropertyOp27
 70
     1
102
RTVSPropertyOp28
 70
     1
102
RTVSPropertyOp29
 70
     1
102
RTVSPropertyOp30
 70
     1
102
RTVSPropertyOp31
 70
     1
102
RTVSPropertyOp32
 70
     1
102
RTVSPropertyOp33
 70
     1
102
RTVSPropertyOp34
 70
     1
102
RTVSPropertyOp35
 70
     1
102
RTVSPropertyOp36
 70
     1
102
RTVSPropertyOp37
 70
     1
102
RTVSPropertyOp38
 70
     1
102
RTVSPropertyOp39
 70
     1
102
RTVSPropertyOp40
 70
     1
102
RTVSPropertyOp41
 70
     1
102
RTVSPropertyOp42
 70
     1
102
RTVSPropertyOp43
 70
     1
102
RTVSPropertyOp44
 70
     1
102
RTVSPropertyOp45
 70
     1
102
RTVSPropertyOp46
 70
     1
102
RTVSPropertyOp47
 70
     1
102
RTVSPropertyOp48
 70
     1
102
RTVSPropertyOp49
 70
     1
102
RTVSPropertyOp50
 70
     1
102
RTVSPropertyOp51
 70
     0
102
RTVSPropertyOp52
 70
     0
102
RTVSPropertyOp53
 70
     1
102
RTVSPropertyOp54
 70
     1
102
RTVSPropertyOp55
 70
     1
102
RTVSPropertyOp56
 70
     1
102
RTVSPropertyOp57
 70
     1
102
RTVSPost2010Prop28
280
     0
102
RTVSPost2010PropOp28
 70
     1
102
RTVSPost2010Prop29
280
     1
102
RTVSPost2010PropOp29
 70
     1
102
RTVSPost2010Prop30
280
     1
102
RTVSPost2010PropOp30
 70
     1
102
RTVSPost2010Prop31
280
     0
102
RTVSPost2010PropOp31
 70
     1
102
RTVSPost2010Prop32
280
     0
102
RTVSPost2010PropOp32
 70
     1
102
RTVSPost2010Prop33
280
     0
102
RTVSPost2010PropOp33
 70
     1
102
RTVSPost2010Prop34
280
     0
102
RTVSPost2010PropOp34
 70
     1
102
RTVSPost2010Prop35
280
     0
102
RTVSPost2010PropOp35
 70
     1
102
RTVSPost2010Prop36
280
     0
102
RTVSPost2010PropOp36
 70
     1
102
RTVSPost2010Prop37
 90
       50
102
RTVSPost2010PropOp37
 70
     1
102
RTVSPost2010Prop38
140
0.0
102
RTVSPost2010PropOp38
 70
     1
102
RTVSPost2010Prop39
140
1.0
102
RTVSPost2010PropOp39
 70
     1
102
RTVSPost2010Prop40
 90
        0
102
RTVSPost2010PropOp40
 70
     1
102
RTVSPost2010Prop41ColorIndex
 90
       18
102
RTVSPost2010Prop41ColorRGB
 90
        0
102
RTVSPost2010PropOp41
 70
     1
102
RTVSPost2010Prop42
 90
       50
102
RTVSPost2010PropOp42
 70
     1
102
RTVSPost2010Prop43
 90
        3
102
RTVSPost2010PropOp43
 70
     1
102
RTVSPost2010Prop44ColorIndex
 90
        5
102
RTVSPost2010Prop44ColorRGB
 90
      255
102
RTVSPost2010PropOp44
 70
     1
102
RTVSPost2010Prop45
280
     0
102
RTVSPost2010PropOp45
 70
     1
102
RTVSPost2010Prop46
 90
       50
102
RTVSPost2010PropOp46
 70
     1
102
RTVSPost2010Prop47
 90
       50
102
RTVSPost2010PropOp47
 70
     1
102
RTVSPost2010Prop48
 90
       50
102
RTVSPost2010PropOp48
 70
     1
102
RTVSPost2010Prop49
280
     0
102
RTVSPost2010PropOp49
 70
     1
102
RTVSPost2010Prop50
 90
       50
102
RTVSPost2010PropOp50
 70
     1
102
RTVSPost2010Prop51ColorIndex
 90
      256
102
RTVSPost2010Prop51ColorRGB
 90
-16777216
102
RTVSPost2010PropOp51
 70
     0
102
RTVSPost2010Prop52
140
1.0
102
RTVSPost2010PropOp52
 70
     0
102
RTVSPost2010Prop53
 90
        2
102
RTVSPost2010PropOp53
 70
     1
102
RTVSPost2010Prop54
  1
strokes_ogs.tif
102
RTVSPost2010PropOp54
 70
     1
102
RTVSPost2010Prop55
280
     0
102
RTVSPost2010PropOp55
 70
     1
102
RTVSPost2010Prop56
140
1.0
102
RTVSPost2010PropOp56
 70
     1
102
RTVSPost2010Prop57
140
1.0
102
RTVSPost2010PropOp57
 70
     1
  0
XRECORD
  5
1BA
102
{ACAD_REACTORS
330
1B9
102
}
330
1B9
100
AcDbXrecord
280
     1
102
RTVSPropertyOp0
 70
     1
102
RTVSPropertyOp1
 70
     1
102
RTVSPropertyOp2
 70
     1
102
RTVSPropertyOp3
 70
     1
102
RTVSPropertyOp4
 70
     1
102
RTVSPropertyOp5
 70
     1
102
RTVSPropertyOp6
 70
     1
102
RTVSPropertyOp7
 70
     1
102
RTVSPropertyOp8
 70
     1
102
RTVSPropertyOp9
 70
     1
102
RTVSPropertyOp10
 70
     1
102
RTVSPropertyOp11
 70
     1
102
RTVSPropertyOp12
 70
     1
102
RTVSPropertyOp13
 70
     1
102
RTVSPropertyOp14
 70
     1
102
RTVSPropertyOp15
 70
     1
102
RTVSPropertyOp16
 70
     1
102
RTVSPropertyOp17
 70
     1
102
RTVSPropertyOp18
 70
     1
102
RTVSPropertyOp19
 70
     1
102
RTVSPropertyOp20
 70
     1
102
RTVSPropertyOp21
 70
     1
102
RTVSPropertyOp22
 70
     1
102
RTVSPropertyOp23
 70
     1
102
RTVSPropertyOp24
 70
     1
102
RTVSPropertyOp25
 70
     1
102
RTVSPropertyOp26
 70
     1
102
RTVSPropertyOp27
 70
     1
102
RTVSPropertyOp28
 70
     1
102
RTVSPropertyOp29
 70
     1
102
RTVSPropertyOp30
 70
     1
102
RTVSPropertyOp31
 70
     1
102
RTVSPropertyOp32
 70
     1
102
RTVSPropertyOp33
 70
     1
102
RTVSPropertyOp34
 70
     1
102
RTVSPropertyOp35
 70
     1
102
RTVSPropertyOp36
 70
     1
102
RTVSPropertyOp37
 70
     1
102
RTVSPropertyOp38
 70
     1
102
RTVSPropertyOp39
 70
     1
102
RTVSPropertyOp40
 70
     1
102
RTVSPropertyOp41
 70
     1
102
RTVSPropertyOp42
 70
     1
102
RTVSPropertyOp43
 70
     1
102
RTVSPropertyOp44
 70
     1
102
RTVSPropertyOp45
 70
     1
102
RTVSPropertyOp46
 70
     1
102
RTVSPropertyOp47
 70
     1
102
RTVSPropertyOp48
 70
     1
102
RTVSPropertyOp49
 70
     1
102
RTVSPropertyOp50
 70
     1
102
RTVSPropertyOp51
 70
     0
102
RTVSPropertyOp52
 70
     0
102
RTVSPropertyOp53
 70
     1
102
RTVSPropertyOp54
 70
     1
102
RTVSPropertyOp55
 70
     1
102
RTVSPropertyOp56
 70
     1
102
RTVSPropertyOp57
 70
     1
102
RTVSPost2010Prop28
280
     0
102
RTVSPost2010PropOp28
 70
     1
102
RTVSPost2010Prop29
280
     1
102
RTVSPost2010PropOp29
 70
     1
102
RTVSPost2010Prop30
280
     1
102
RTVSPost2010PropOp30
 70
     1
102
RTVSPost2010Prop31
280
     0
102
RTVSPost2010PropOp31
 70
     1
102
RTVSPost2010Prop32
280
     0
102
RTVSPost2010PropOp32
 70
     1
102
RTVSPost2010Prop33
280
     0
102
RTVSPost2010PropOp33
 70
     1
102
RTVSPost2010Prop34
280
     0
102
RTVSPost2010PropOp34
 70
     1
102
RTVSPost2010Prop35
280
     0
102
RTVSPost2010PropOp35
 70
     1
102
RTVSPost2010Prop36
280
     0
102
RTVSPost2010PropOp36
 70
     1
102
RTVSPost2010Prop37
 90
       50
102
RTVSPost2010PropOp37
 70
     1
102
RTVSPost2010Prop38
140
0.0
102
RTVSPost2010PropOp38
 70
     1
102
RTVSPost2010Prop39
140
1.0
102
RTVSPost2010PropOp39
 70
     1
102
RTVSPost2010Prop40
 90
        0
102
RTVSPost2010PropOp40
 70
     1
102
RTVSPost2010Prop41ColorIndex
 90
       18
102
RTVSPost2010Prop41ColorRGB
 90
        0
102
RTVSPost2010PropOp41
 70
     1
102
RTVSPost2010Prop42
 90
       50
102
RTVSPost2010PropOp42
 70
     1
102
RTVSPost2010Prop43
 90
        3
102
RTVSPost2010PropOp43
 70
     1
102
RTVSPost2010Prop44ColorIndex
 90
        5
102
RTVSPost2010Prop44ColorRGB
 90
      255
102
RTVSPost2010PropOp44
 70
     1
102
RTVSPost2010Prop45
280
     0
102
RTVSPost2010PropOp45
 70
     1
102
RTVSPost2010Prop46
 90
       50
102
RTVSPost2010PropOp46
 70
     1
102
RTVSPost2010Prop47
 90
       50
102
RTVSPost2010PropOp47
 70
     1
102
RTVSPost2010Prop48
 90
       50
102
RTVSPost2010PropOp48
 70
     1
102
RTVSPost2010Prop49
280
     0
102
RTVSPost2010PropOp49
 70
     1
102
RTVSPost2010Prop50
 90
       50
102
RTVSPost2010PropOp50
 70
     1
102
RTVSPost2010Prop51ColorIndex
 90
      256
102
RTVSPost2010Prop51ColorRGB
 90
-16777216
102
RTVSPost2010PropOp51
 70
     0
102
RTVSPost2010Prop52
140
1.0
102
RTVSPost2010PropOp52
 70
     0
102
RTVSPost2010Prop53
 90
        2
102
RTVSPost2010PropOp53
 70
     1
102
RTVSPost2010Prop54
  1
strokes_ogs.tif
102
RTVSPost2010PropOp54
 70
     1
102
RTVSPost2010Prop55
280
     0
102
RTVSPost2010PropOp55
 70
     1
102
RTVSPost2010Prop56
140
1.0
102
RTVSPost2010PropOp56
 70
     1
102
RTVSPost2010Prop57
140
1.0
102
RTVSPost2010PropOp57
 70
     1
  0
XRECORD
  5
1B8
102
{ACAD_REACTORS
330
1B7
102
}
330
1B7
100
AcDbXrecord
280
     1
102
RTVSPropertyOp0
 70
     1
102
RTVSPropertyOp1
 70
     1
102
RTVSPropertyOp2
 70
     1
102
RTVSPropertyOp3
 70
     1
102
RTVSPropertyOp4
 70
     1
102
RTVSPropertyOp5
 70
     1
102
RTVSPropertyOp6
 70
     1
102
RTVSPropertyOp7
 70
     1
102
RTVSPropertyOp8
 70
     1
102
RTVSPropertyOp9
 70
     1
102
RTVSPropertyOp10
 70
     1
102
RTVSPropertyOp11
 70
     1
102
RTVSPropertyOp12
 70
     1
102
RTVSPropertyOp13
 70
     1
102
RTVSPropertyOp14
 70
     1
102
RTVSPropertyOp15
 70
     1
102
RTVSPropertyOp16
 70
     1
102
RTVSPropertyOp17
 70
     1
102
RTVSPropertyOp18
 70
     1
102
RTVSPropertyOp19
 70
     1
102
RTVSPropertyOp20
 70
     1
102
RTVSPropertyOp21
 70
     1
102
RTVSPropertyOp22
 70
     1
102
RTVSPropertyOp23
 70
     1
102
RTVSPropertyOp24
 70
     1
102
RTVSPropertyOp25
 70
     1
102
RTVSPropertyOp26
 70
     1
102
RTVSPropertyOp27
 70
     1
102
RTVSPropertyOp28
 70
     1
102
RTVSPropertyOp29
 70
     1
102
RTVSPropertyOp30
 70
     1
102
RTVSPropertyOp31
 70
     1
102
RTVSPropertyOp32
 70
     1
102
RTVSPropertyOp33
 70
     1
102
RTVSPropertyOp34
 70
     1
102
RTVSPropertyOp35
 70
     1
102
RTVSPropertyOp36
 70
     1
102
RTVSPropertyOp37
 70
     1
102
RTVSPropertyOp38
 70
     1
102
RTVSPropertyOp39
 70
     1
102
RTVSPropertyOp40
 70
     1
102
RTVSPropertyOp41
 70
     1
102
RTVSPropertyOp42
 70
     1
102
RTVSPropertyOp43
 70
     1
102
RTVSPropertyOp44
 70
     1
102
RTVSPropertyOp45
 70
     1
102
RTVSPropertyOp46
 70
     1
102
RTVSPropertyOp47
 70
     1
102
RTVSPropertyOp48
 70
     1
102
RTVSPropertyOp49
 70
     1
102
RTVSPropertyOp50
 70
     1
102
RTVSPropertyOp51
 70
     0
102
RTVSPropertyOp52
 70
     0
102
RTVSPropertyOp53
 70
     1
102
RTVSPropertyOp54
 70
     1
102
RTVSPropertyOp55
 70
     1
102
RTVSPropertyOp56
 70
     1
102
RTVSPropertyOp57
 70
     1
102
RTVSPost2010Prop28
280
     0
102
RTVSPost2010PropOp28
 70
     1
102
RTVSPost2010Prop29
280
     1
102
RTVSPost2010PropOp29
 70
     1
102
RTVSPost2010Prop30
280
     1
102
RTVSPost2010PropOp30
 70
     1
102
RTVSPost2010Prop31
280
     0
102
RTVSPost2010PropOp31
 70
     1
102
RTVSPost2010Prop32
280
     0
102
RTVSPost2010PropOp32
 70
     1
102
RTVSPost2010Prop33
280
     0
102
RTVSPost2010PropOp33
 70
     1
102
RTVSPost2010Prop34
280
     0
102
RTVSPost2010PropOp34
 70
     1
102
RTVSPost2010Prop35
280
     0
102
RTVSPost2010PropOp35
 70
     1
102
RTVSPost2010Prop36
280
     0
102
RTVSPost2010PropOp36
 70
     1
102
RTVSPost2010Prop37
 90
       50
102
RTVSPost2010PropOp37
 70
     1
102
RTVSPost2010Prop38
140
0.0
102
RTVSPost2010PropOp38
 70
     1
102
RTVSPost2010Prop39
140
1.0
102
RTVSPost2010PropOp39
 70
     1
102
RTVSPost2010Prop40
 90
        0
102
RTVSPost2010PropOp40
 70
     1
102
RTVSPost2010Prop41ColorIndex
 90
       18
102
RTVSPost2010Prop41ColorRGB
 90
        0
102
RTVSPost2010PropOp41
 70
     1
102
RTVSPost2010Prop42
 90
       50
102
RTVSPost2010PropOp42
 70
     1
102
RTVSPost2010Prop43
 90
        3
102
RTVSPost2010PropOp43
 70
     1
102
RTVSPost2010Prop44ColorIndex
 90
        5
102
RTVSPost2010Prop44ColorRGB
 90
      255
102
RTVSPost2010PropOp44
 70
     1
102
RTVSPost2010Prop45
280
     0
102
RTVSPost2010PropOp45
 70
     1
102
RTVSPost2010Prop46
 90
       50
102
RTVSPost2010PropOp46
 70
     1
102
RTVSPost2010Prop47
 90
       50
102
RTVSPost2010PropOp47
 70
     1
102
RTVSPost2010Prop48
 90
       50
102
RTVSPost2010PropOp48
 70
     1
102
RTVSPost2010Prop49
280
     0
102
RTVSPost2010PropOp49
 70
     1
102
RTVSPost2010Prop50
 90
       50
102
RTVSPost2010PropOp50
 70
     1
102
RTVSPost2010Prop51ColorIndex
 90
      256
102
RTVSPost2010Prop51ColorRGB
 90
-16777216
102
RTVSPost2010PropOp51
 70
     0
102
RTVSPost2010Prop52
140
1.0
102
RTVSPost2010PropOp52
 70
     0
102
RTVSPost2010Prop53
 90
        2
102
RTVSPost2010PropOp53
 70
     1
102
RTVSPost2010Prop54
  1
strokes_ogs.tif
102
RTVSPost2010PropOp54
 70
     1
102
RTVSPost2010Prop55
280
     0
102
RTVSPost2010PropOp55
 70
     1
102
RTVSPost2010Prop56
140
1.0
102
RTVSPost2010PropOp56
 70
     1
102
RTVSPost2010Prop57
140
1.0
102
RTVSPost2010PropOp57
 70
     1
  0
XRECORD
  5
1B2
102
{ACAD_REACTORS
330
1B1
102
}
330
1B1
100
AcDbXrecord
280
     1
102
RTVSPropertyOp0
 70
     1
102
RTVSPropertyOp1
 70
     1
102
RTVSPropertyOp2
 70
     1
102
RTVSPropertyOp3
 70
     1
102
RTVSPropertyOp4
 70
     1
102
RTVSPropertyOp5
 70
     1
102
RTVSPropertyOp6
 70
     1
102
RTVSPropertyOp7
 70
     1
102
RTVSPropertyOp8
 70
     1
102
RTVSPropertyOp9
 70
     1
102
RTVSPropertyOp10
 70
     1
102
RTVSPropertyOp11
 70
     1
102
RTVSPropertyOp12
 70
     1
102
RTVSPropertyOp13
 70
     1
102
RTVSPropertyOp14
 70
     1
102
RTVSPropertyOp15
 70
     1
102
RTVSPropertyOp16
 70
     1
102
RTVSPropertyOp17
 70
     1
102
RTVSPropertyOp18
 70
     1
102
RTVSPropertyOp19
 70
     1
102
RTVSPropertyOp20
 70
     1
102
RTVSPropertyOp21
 70
     1
102
RTVSPropertyOp22
 70
     1
102
RTVSPropertyOp23
 70
     1
102
RTVSPropertyOp24
 70
     1
102
RTVSPropertyOp25
 70
     1
102
RTVSPropertyOp26
 70
     1
102
RTVSPropertyOp27
 70
     1
102
RTVSPropertyOp28
 70
     1
102
RTVSPropertyOp29
 70
     1
102
RTVSPropertyOp30
 70
     1
102
RTVSPropertyOp31
 70
     1
102
RTVSPropertyOp32
 70
     1
102
RTVSPropertyOp33
 70
     1
102
RTVSPropertyOp34
 70
     1
102
RTVSPropertyOp35
 70
     1
102
RTVSPropertyOp36
 70
     1
102
RTVSPropertyOp37
 70
     1
102
RTVSPropertyOp38
 70
     1
102
RTVSPropertyOp39
 70
     1
102
RTVSPropertyOp40
 70
     1
102
RTVSPropertyOp41
 70
     1
102
RTVSPropertyOp42
 70
     1
102
RTVSPropertyOp43
 70
     1
102
RTVSPropertyOp44
 70
     1
102
RTVSPropertyOp45
 70
     1
102
RTVSPropertyOp46
 70
     1
102
RTVSPropertyOp47
 70
     1
102
RTVSPropertyOp48
 70
     1
102
RTVSPropertyOp49
 70
     1
102
RTVSPropertyOp50
 70
     1
102
RTVSPropertyOp51
 70
     0
102
RTVSPropertyOp52
 70
     0
102
RTVSPropertyOp53
 70
     1
102
RTVSPropertyOp54
 70
     1
102
RTVSPropertyOp55
 70
     1
102
RTVSPropertyOp56
 70
     1
102
RTVSPropertyOp57
 70
     1
102
RTVSPost2010Prop28
280
     0
102
RTVSPost2010PropOp28
 70
     1
102
RTVSPost2010Prop29
280
     1
102
RTVSPost2010PropOp29
 70
     1
102
RTVSPost2010Prop30
280
     1
102
RTVSPost2010PropOp30
 70
     1
102
RTVSPost2010Prop31
280
     0
102
RTVSPost2010PropOp31
 70
     1
102
RTVSPost2010Prop32
280
     0
102
RTVSPost2010PropOp32
 70
     1
102
RTVSPost2010Prop33
280
     0
102
RTVSPost2010PropOp33
 70
     1
102
RTVSPost2010Prop34
280
     0
102
RTVSPost2010PropOp34
 70
     1
102
RTVSPost2010Prop35
280
     0
102
RTVSPost2010PropOp35
 70
     1
102
RTVSPost2010Prop36
280
     0
102
RTVSPost2010PropOp36
 70
     1
102
RTVSPost2010Prop37
 90
       50
102
RTVSPost2010PropOp37
 70
     1
102
RTVSPost2010Prop38
140
0.0
102
RTVSPost2010PropOp38
 70
     1
102
RTVSPost2010Prop39
140
1.0
102
RTVSPost2010PropOp39
 70
     1
102
RTVSPost2010Prop40
 90
        0
102
RTVSPost2010PropOp40
 70
     1
102
RTVSPost2010Prop41ColorIndex
 90
       18
102
RTVSPost2010Prop41ColorRGB
 90
        0
102
RTVSPost2010PropOp41
 70
     1
102
RTVSPost2010Prop42
 90
       50
102
RTVSPost2010PropOp42
 70
     1
102
RTVSPost2010Prop43
 90
        3
102
RTVSPost2010PropOp43
 70
     1
102
RTVSPost2010Prop44ColorIndex
 90
        5
102
RTVSPost2010Prop44ColorRGB
 90
      255
102
RTVSPost2010PropOp44
 70
     1
102
RTVSPost2010Prop45
280
     0
102
RTVSPost2010PropOp45
 70
     1
102
RTVSPost2010Prop46
 90
       50
102
RTVSPost2010PropOp46
 70
     1
102
RTVSPost2010Prop47
 90
       50
102
RTVSPost2010PropOp47
 70
     1
102
RTVSPost2010Prop48
 90
       50
102
RTVSPost2010PropOp48
 70
     1
102
RTVSPost2010Prop49
280
     0
102
RTVSPost2010PropOp49
 70
     1
102
RTVSPost2010Prop50
 90
       50
102
RTVSPost2010PropOp50
 70
     1
102
RTVSPost2010Prop51ColorIndex
 90
      256
102
RTVSPost2010Prop51ColorRGB
 90
-16777216
102
RTVSPost2010PropOp51
 70
     0
102
RTVSPost2010Prop52
140
1.0
102
RTVSPost2010PropOp52
 70
     0
102
RTVSPost2010Prop53
 90
        2
102
RTVSPost2010PropOp53
 70
     1
102
RTVSPost2010Prop54
  1
strokes_ogs.tif
102
RTVSPost2010PropOp54
 70
     1
102
RTVSPost2010Prop55
280
     0
102
RTVSPost2010PropOp55
 70
     1
102
RTVSPost2010Prop56
140
1.0
102
RTVSPost2010PropOp56
 70
     1
102
RTVSPost2010Prop57
140
1.0
102
RTVSPost2010PropOp57
 70
     1
  0
XRECORD
  5
1B4
102
{ACAD_REACTORS
330
1B3
102
}
330
1B3
100
AcDbXrecord
280
     1
102
RTVSPropertyOp0
 70
     1
102
RTVSPropertyOp1
 70
     1
102
RTVSPropertyOp2
 70
     1
102
RTVSPropertyOp3
 70
     1
102
RTVSPropertyOp4
 70
     1
102
RTVSPropertyOp5
 70
     1
102
RTVSPropertyOp6
 70
     1
102
RTVSPropertyOp7
 70
     1
102
RTVSPropertyOp8
 70
     1
102
RTVSPropertyOp9
 70
     1
102
RTVSPropertyOp10
 70
     1
102
RTVSPropertyOp11
 70
     1
102
RTVSPropertyOp12
 70
     1
102
RTVSPropertyOp13
 70
     1
102
RTVSPropertyOp14
 70
     1
102
RTVSPropertyOp15
 70
     1
102
RTVSPropertyOp16
 70
     1
102
RTVSPropertyOp17
 70
     1
102
RTVSPropertyOp18
 70
     1
102
RTVSPropertyOp19
 70
     1
102
RTVSPropertyOp20
 70
     1
102
RTVSPropertyOp21
 70
     1
102
RTVSPropertyOp22
 70
     1
102
RTVSPropertyOp23
 70
     1
102
RTVSPropertyOp24
 70
     1
102
RTVSPropertyOp25
 70
     1
102
RTVSPropertyOp26
 70
     1
102
RTVSPropertyOp27
 70
     1
102
RTVSPropertyOp28
 70
     1
102
RTVSPropertyOp29
 70
     1
102
RTVSPropertyOp30
 70
     1
102
RTVSPropertyOp31
 70
     1
102
RTVSPropertyOp32
 70
     1
102
RTVSPropertyOp33
 70
     1
102
RTVSPropertyOp34
 70
     1
102
RTVSPropertyOp35
 70
     1
102
RTVSPropertyOp36
 70
     1
102
RTVSPropertyOp37
 70
     1
102
RTVSPropertyOp38
 70
     1
102
RTVSPropertyOp39
 70
     1
102
RTVSPropertyOp40
 70
     1
102
RTVSPropertyOp41
 70
     1
102
RTVSPropertyOp42
 70
     1
102
RTVSPropertyOp43
 70
     1
102
RTVSPropertyOp44
 70
     1
102
RTVSPropertyOp45
 70
     1
102
RTVSPropertyOp46
 70
     1
102
RTVSPropertyOp47
 70
     1
102
RTVSPropertyOp48
 70
     1
102
RTVSPropertyOp49
 70
     1
102
RTVSPropertyOp50
 70
     1
102
RTVSPropertyOp51
 70
     0
102
RTVSPropertyOp52
 70
     0
102
RTVSPropertyOp53
 70
     1
102
RTVSPropertyOp54
 70
     1
102
RTVSPropertyOp55
 70
     1
102
RTVSPropertyOp56
 70
     1
102
RTVSPropertyOp57
 70
     1
102
RTVSPost2010Prop28
280
     0
102
RTVSPost2010PropOp28
 70
     1
102
RTVSPost2010Prop29
280
     1
102
RTVSPost2010PropOp29
 70
     1
102
RTVSPost2010Prop30
280
     1
102
RTVSPost2010PropOp30
 70
     1
102
RTVSPost2010Prop31
280
     0
102
RTVSPost2010PropOp31
 70
     1
102
RTVSPost2010Prop32
280
     0
102
RTVSPost2010PropOp32
 70
     1
102
RTVSPost2010Prop33
280
     0
102
RTVSPost2010PropOp33
 70
     1
102
RTVSPost2010Prop34
280
     0
102
RTVSPost2010PropOp34
 70
     1
102
RTVSPost2010Prop35
280
     0
102
RTVSPost2010PropOp35
 70
     1
102
RTVSPost2010Prop36
280
     0
102
RTVSPost2010PropOp36
 70
     1
102
RTVSPost2010Prop37
 90
       50
102
RTVSPost2010PropOp37
 70
     1
102
RTVSPost2010Prop38
140
0.0
102
RTVSPost2010PropOp38
 70
     1
102
RTVSPost2010Prop39
140
1.0
102
RTVSPost2010PropOp39
 70
     1
102
RTVSPost2010Prop40
 90
        0
102
RTVSPost2010PropOp40
 70
     1
102
RTVSPost2010Prop41ColorIndex
 90
       18
102
RTVSPost2010Prop41ColorRGB
 90
        0
102
RTVSPost2010PropOp41
 70
     1
102
RTVSPost2010Prop42
 90
       50
102
RTVSPost2010PropOp42
 70
     1
102
RTVSPost2010Prop43
 90
        3
102
RTVSPost2010PropOp43
 70
     1
102
RTVSPost2010Prop44ColorIndex
 90
        5
102
RTVSPost2010Prop44ColorRGB
 90
      255
102
RTVSPost2010PropOp44
 70
     1
102
RTVSPost2010Prop45
280
     0
102
RTVSPost2010PropOp45
 70
     1
102
RTVSPost2010Prop46
 90
       50
102
RTVSPost2010PropOp46
 70
     1
102
RTVSPost2010Prop47
 90
       50
102
RTVSPost2010PropOp47
 70
     1
102
RTVSPost2010Prop48
 90
       50
102
RTVSPost2010PropOp48
 70
     1
102
RTVSPost2010Prop49
280
     0
102
RTVSPost2010PropOp49
 70
     1
102
RTVSPost2010Prop50
 90
       50
102
RTVSPost2010PropOp50
 70
     1
102
RTVSPost2010Prop51ColorIndex
 90
      256
102
RTVSPost2010Prop51ColorRGB
 90
-16777216
102
RTVSPost2010PropOp51
 70
     0
102
RTVSPost2010Prop52
140
1.0
102
RTVSPost2010PropOp52
 70
     0
102
RTVSPost2010Prop53
 90
        2
102
RTVSPost2010PropOp53
 70
     1
102
RTVSPost2010Prop54
  1
strokes_ogs.tif
102
RTVSPost2010PropOp54
 70
     1
102
RTVSPost2010Prop55
280
     0
102
RTVSPost2010PropOp55
 70
     1
102
RTVSPost2010Prop56
140
1.0
102
RTVSPost2010PropOp56
 70
     1
102
RTVSPost2010Prop57
140
1.0
102
RTVSPost2010PropOp57
 70
     1
  0
XRECORD
  5
1A4
102
{ACAD_REACTORS
330
1A3
102
}
330
1A3
100
AcDbXrecord
280
     1
102
RTVSPropertyOp0
 70
     1
102
RTVSPropertyOp1
 70
     1
102
RTVSPropertyOp2
 70
     1
102
RTVSPropertyOp3
 70
     1
102
RTVSPropertyOp4
 70
     1
102
RTVSPropertyOp5
 70
     1
102
RTVSPropertyOp6
 70
     1
102
RTVSPropertyOp7
 70
     1
102
RTVSPropertyOp8
 70
     1
102
RTVSPropertyOp9
 70
     1
102
RTVSPropertyOp10
 70
     1
102
RTVSPropertyOp11
 70
     1
102
RTVSPropertyOp12
 70
     1
102
RTVSPropertyOp13
 70
     1
102
RTVSPropertyOp14
 70
     1
102
RTVSPropertyOp15
 70
     1
102
RTVSPropertyOp16
 70
     1
102
RTVSPropertyOp17
 70
     1
102
RTVSPropertyOp18
 70
     1
102
RTVSPropertyOp19
 70
     1
102
RTVSPropertyOp20
 70
     1
102
RTVSPropertyOp21
 70
     1
102
RTVSPropertyOp22
 70
     1
102
RTVSPropertyOp23
 70
     1
102
RTVSPropertyOp24
 70
     1
102
RTVSPropertyOp25
 70
     1
102
RTVSPropertyOp26
 70
     1
102
RTVSPropertyOp27
 70
     1
102
RTVSPropertyOp28
 70
     1
102
RTVSPropertyOp29
 70
     1
102
RTVSPropertyOp30
 70
     1
102
RTVSPropertyOp31
 70
     1
102
RTVSPropertyOp32
 70
     1
102
RTVSPropertyOp33
 70
     1
102
RTVSPropertyOp34
 70
     1
102
RTVSPropertyOp35
 70
     1
102
RTVSPropertyOp36
 70
     1
102
RTVSPropertyOp37
 70
     1
102
RTVSPropertyOp38
 70
     1
102
RTVSPropertyOp39
 70
     1
102
RTVSPropertyOp40
 70
     1
102
RTVSPropertyOp41
 70
     1
102
RTVSPropertyOp42
 70
     1
102
RTVSPropertyOp43
 70
     1
102
RTVSPropertyOp44
 70
     1
102
RTVSPropertyOp45
 70
     1
102
RTVSPropertyOp46
 70
     1
102
RTVSPropertyOp47
 70
     1
102
RTVSPropertyOp48
 70
     1
102
RTVSPropertyOp49
 70
     1
102
RTVSPropertyOp50
 70
     1
102
RTVSPropertyOp51
 70
     0
102
RTVSPropertyOp52
 70
     0
102
RTVSPropertyOp53
 70
     1
102
RTVSPropertyOp54
 70
     1
102
RTVSPropertyOp55
 70
     1
102
RTVSPropertyOp56
 70
     1
102
RTVSPropertyOp57
 70
     1
102
RTVSPost2010Prop28
280
     0
102
RTVSPost2010PropOp28
 70
     1
102
RTVSPost2010Prop29
280
     1
102
RTVSPost2010PropOp29
 70
     1
102
RTVSPost2010Prop30
280
     1
102
RTVSPost2010PropOp30
 70
     1
102
RTVSPost2010Prop31
280
     0
102
RTVSPost2010PropOp31
 70
     1
102
RTVSPost2010Prop32
280
     0
102
RTVSPost2010PropOp32
 70
     1
102
RTVSPost2010Prop33
280
     0
102
RTVSPost2010PropOp33
 70
     1
102
RTVSPost2010Prop34
280
     0
102
RTVSPost2010PropOp34
 70
     1
102
RTVSPost2010Prop35
280
     0
102
RTVSPost2010PropOp35
 70
     1
102
RTVSPost2010Prop36
280
     0
102
RTVSPost2010PropOp36
 70
     1
102
RTVSPost2010Prop37
 90
       50
102
RTVSPost2010PropOp37
 70
     1
102
RTVSPost2010Prop38
140
0.0
102
RTVSPost2010PropOp38
 70
     1
102
RTVSPost2010Prop39
140
1.0
102
RTVSPost2010PropOp39
 70
     1
102
RTVSPost2010Prop40
 90
        0
102
RTVSPost2010PropOp40
 70
     1
102
RTVSPost2010Prop41ColorIndex
 90
       18
102
RTVSPost2010Prop41ColorRGB
 90
        0
102
RTVSPost2010PropOp41
 70
     1
102
RTVSPost2010Prop42
 90
       50
102
RTVSPost2010PropOp42
 70
     1
102
RTVSPost2010Prop43
 90
        3
102
RTVSPost2010PropOp43
 70
     1
102
RTVSPost2010Prop44ColorIndex
 90
        5
102
RTVSPost2010Prop44ColorRGB
 90
      255
102
RTVSPost2010PropOp44
 70
     1
102
RTVSPost2010Prop45
280
     0
102
RTVSPost2010PropOp45
 70
     1
102
RTVSPost2010Prop46
 90
       50
102
RTVSPost2010PropOp46
 70
     1
102
RTVSPost2010Prop47
 90
       50
102
RTVSPost2010PropOp47
 70
     1
102
RTVSPost2010Prop48
 90
       50
102
RTVSPost2010PropOp48
 70
     1
102
RTVSPost2010Prop49
280
     0
102
RTVSPost2010PropOp49
 70
     1
102
RTVSPost2010Prop50
 90
       50
102
RTVSPost2010PropOp50
 70
     1
102
RTVSPost2010Prop51ColorIndex
 90
      256
102
RTVSPost2010Prop51ColorRGB
 90
-16777216
102
RTVSPost2010PropOp51
 70
     0
102
RTVSPost2010Prop52
140
1.0
102
RTVSPost2010PropOp52
 70
     0
102
RTVSPost2010Prop53
 90
        2
102
RTVSPost2010PropOp53
 70
     1
102
RTVSPost2010Prop54
  1
strokes_ogs.tif
102
RTVSPost2010PropOp54
 70
     1
102
RTVSPost2010Prop55
280
     0
102
RTVSPost2010PropOp55
 70
     1
102
RTVSPost2010Prop56
140
1.0
102
RTVSPost2010PropOp56
 70
     1
102
RTVSPost2010Prop57
140
1.0
102
RTVSPost2010PropOp57
 70
     1
  0
XRECORD
  5
196
102
{ACAD_REACTORS
330
195
102
}
330
195
100
AcDbXrecord
280
     1
102
RTVSPropertyOp0
 70
     1
102
RTVSPropertyOp1
 70
     1
102
RTVSPropertyOp2
 70
     1
102
RTVSPropertyOp3
 70
     1
102
RTVSPropertyOp4
 70
     1
102
RTVSPropertyOp5
 70
     1
102
RTVSPropertyOp6
 70
     1
102
RTVSPropertyOp7
 70
     1
102
RTVSPropertyOp8
 70
     1
102
RTVSPropertyOp9
 70
     1
102
RTVSPropertyOp10
 70
     1
102
RTVSPropertyOp11
 70
     1
102
RTVSPropertyOp12
 70
     1
102
RTVSPropertyOp13
 70
     1
102
RTVSPropertyOp14
 70
     1
102
RTVSPropertyOp15
 70
     1
102
RTVSPropertyOp16
 70
     1
102
RTVSPropertyOp17
 70
     1
102
RTVSPropertyOp18
 70
     1
102
RTVSPropertyOp19
 70
     1
102
RTVSPropertyOp20
 70
     1
102
RTVSPropertyOp21
 70
     1
102
RTVSPropertyOp22
 70
     1
102
RTVSPropertyOp23
 70
     1
102
RTVSPropertyOp24
 70
     1
102
RTVSPropertyOp25
 70
     1
102
RTVSPropertyOp26
 70
     1
102
RTVSPropertyOp27
 70
     1
102
RTVSPropertyOp28
 70
     1
102
RTVSPropertyOp29
 70
     1
102
RTVSPropertyOp30
 70
     1
102
RTVSPropertyOp31
 70
     1
102
RTVSPropertyOp32
 70
     1
102
RTVSPropertyOp33
 70
     1
102
RTVSPropertyOp34
 70
     1
102
RTVSPropertyOp35
 70
     1
102
RTVSPropertyOp36
 70
     1
102
RTVSPropertyOp37
 70
     1
102
RTVSPropertyOp38
 70
     1
102
RTVSPropertyOp39
 70
     1
102
RTVSPropertyOp40
 70
     1
102
RTVSPropertyOp41
 70
     1
102
RTVSPropertyOp42
 70
     1
102
RTVSPropertyOp43
 70
     1
102
RTVSPropertyOp44
 70
     1
102
RTVSPropertyOp45
 70
     1
102
RTVSPropertyOp46
 70
     1
102
RTVSPropertyOp47
 70
     1
102
RTVSPropertyOp48
 70
     1
102
RTVSPropertyOp49
 70
     1
102
RTVSPropertyOp50
 70
     1
102
RTVSPropertyOp51
 70
     0
102
RTVSPropertyOp52
 70
     0
102
RTVSPropertyOp53
 70
     1
102
RTVSPropertyOp54
 70
     1
102
RTVSPropertyOp55
 70
     1
102
RTVSPropertyOp56
 70
     1
102
RTVSPropertyOp57
 70
     1
102
RTVSPost2010Prop28
280
     0
102
RTVSPost2010PropOp28
 70
     1
102
RTVSPost2010Prop29
280
     1
102
RTVSPost2010PropOp29
 70
     1
102
RTVSPost2010Prop30
280
     1
102
RTVSPost2010PropOp30
 70
     1
102
RTVSPost2010Prop31
280
     0
102
RTVSPost2010PropOp31
 70
     1
102
RTVSPost2010Prop32
280
     0
102
RTVSPost2010PropOp32
 70
     1
102
RTVSPost2010Prop33
280
     0
102
RTVSPost2010PropOp33
 70
     1
102
RTVSPost2010Prop34
280
     0
102
RTVSPost2010PropOp34
 70
     1
102
RTVSPost2010Prop35
280
     0
102
RTVSPost2010PropOp35
 70
     1
102
RTVSPost2010Prop36
280
     0
102
RTVSPost2010PropOp36
 70
     1
102
RTVSPost2010Prop37
 90
       50
102
RTVSPost2010PropOp37
 70
     1
102
RTVSPost2010Prop38
140
0.0
102
RTVSPost2010PropOp38
 70
     1
102
RTVSPost2010Prop39
140
1.0
102
RTVSPost2010PropOp39
 70
     1
102
RTVSPost2010Prop40
 90
        0
102
RTVSPost2010PropOp40
 70
     1
102
RTVSPost2010Prop41ColorIndex
 90
       18
102
RTVSPost2010Prop41ColorRGB
 90
        0
102
RTVSPost2010PropOp41
 70
     1
102
RTVSPost2010Prop42
 90
       50
102
RTVSPost2010PropOp42
 70
     1
102
RTVSPost2010Prop43
 90
        3
102
RTVSPost2010PropOp43
 70
     1
102
RTVSPost2010Prop44ColorIndex
 90
        5
102
RTVSPost2010Prop44ColorRGB
 90
      255
102
RTVSPost2010PropOp44
 70
     1
102
RTVSPost2010Prop45
280
     0
102
RTVSPost2010PropOp45
 70
     1
102
RTVSPost2010Prop46
 90
       50
102
RTVSPost2010PropOp46
 70
     1
102
RTVSPost2010Prop47
 90
       50
102
RTVSPost2010PropOp47
 70
     1
102
RTVSPost2010Prop48
 90
       50
102
RTVSPost2010PropOp48
 70
     1
102
RTVSPost2010Prop49
280
     0
102
RTVSPost2010PropOp49
 70
     1
102
RTVSPost2010Prop50
 90
       50
102
RTVSPost2010PropOp50
 70
     1
102
RTVSPost2010Prop51ColorIndex
 90
      256
102
RTVSPost2010Prop51ColorRGB
 90
-16777216
102
RTVSPost2010PropOp51
 70
     0
102
RTVSPost2010Prop52
140
1.0
102
RTVSPost2010PropOp52
 70
     0
102
RTVSPost2010Prop53
 90
        2
102
RTVSPost2010PropOp53
 70
     1
102
RTVSPost2010Prop54
  1
strokes_ogs.tif
102
RTVSPost2010PropOp54
 70
     1
102
RTVSPost2010Prop55
280
     0
102
RTVSPost2010PropOp55
 70
     1
102
RTVSPost2010Prop56
140
1.0
102
RTVSPost2010PropOp56
 70
     1
102
RTVSPost2010Prop57
140
1.0
102
RTVSPost2010PropOp57
 70
     1
  0
XRECORD
  5
1B6
102
{ACAD_REACTORS
330
1B5
102
}
330
1B5
100
AcDbXrecord
280
     1
102
RTVSPropertyOp0
 70
     1
102
RTVSPropertyOp1
 70
     1
102
RTVSPropertyOp2
 70
     1
102
RTVSPropertyOp3
 70
     1
102
RTVSPropertyOp4
 70
     1
102
RTVSPropertyOp5
 70
     1
102
RTVSPropertyOp6
 70
     1
102
RTVSPropertyOp7
 70
     1
102
RTVSPropertyOp8
 70
     1
102
RTVSPropertyOp9
 70
     1
102
RTVSPropertyOp10
 70
     1
102
RTVSPropertyOp11
 70
     1
102
RTVSPropertyOp12
 70
     1
102
RTVSPropertyOp13
 70
     1
102
RTVSPropertyOp14
 70
     1
102
RTVSPropertyOp15
 70
     1
102
RTVSPropertyOp16
 70
     1
102
RTVSPropertyOp17
 70
     1
102
RTVSPropertyOp18
 70
     1
102
RTVSPropertyOp19
 70
     1
102
RTVSPropertyOp20
 70
     1
102
RTVSPropertyOp21
 70
     1
102
RTVSPropertyOp22
 70
     1
102
RTVSPropertyOp23
 70
     1
102
RTVSPropertyOp24
 70
     1
102
RTVSPropertyOp25
 70
     1
102
RTVSPropertyOp26
 70
     1
102
RTVSPropertyOp27
 70
     1
102
RTVSPropertyOp28
 70
     1
102
RTVSPropertyOp29
 70
     1
102
RTVSPropertyOp30
 70
     1
102
RTVSPropertyOp31
 70
     1
102
RTVSPropertyOp32
 70
     1
102
RTVSPropertyOp33
 70
     1
102
RTVSPropertyOp34
 70
     1
102
RTVSPropertyOp35
 70
     1
102
RTVSPropertyOp36
 70
     1
102
RTVSPropertyOp37
 70
     1
102
RTVSPropertyOp38
 70
     1
102
RTVSPropertyOp39
 70
     1
102
RTVSPropertyOp40
 70
     1
102
RTVSPropertyOp41
 70
     1
102
RTVSPropertyOp42
 70
     1
102
RTVSPropertyOp43
 70
     1
102
RTVSPropertyOp44
 70
     1
102
RTVSPropertyOp45
 70
     1
102
RTVSPropertyOp46
 70
     1
102
RTVSPropertyOp47
 70
     1
102
RTVSPropertyOp48
 70
     1
102
RTVSPropertyOp49
 70
     1
102
RTVSPropertyOp50
 70
     1
102
RTVSPropertyOp51
 70
     0
102
RTVSPropertyOp52
 70
     0
102
RTVSPropertyOp53
 70
     1
102
RTVSPropertyOp54
 70
     1
102
RTVSPropertyOp55
 70
     1
102
RTVSPropertyOp56
 70
     1
102
RTVSPropertyOp57
 70
     1
102
RTVSPost2010Prop28
280
     0
102
RTVSPost2010PropOp28
 70
     1
102
RTVSPost2010Prop29
280
     1
102
RTVSPost2010PropOp29
 70
     1
102
RTVSPost2010Prop30
280
     1
102
RTVSPost2010PropOp30
 70
     1
102
RTVSPost2010Prop31
280
     0
102
RTVSPost2010PropOp31
 70
     1
102
RTVSPost2010Prop32
280
     0
102
RTVSPost2010PropOp32
 70
     1
102
RTVSPost2010Prop33
280
     0
102
RTVSPost2010PropOp33
 70
     1
102
RTVSPost2010Prop34
280
     0
102
RTVSPost2010PropOp34
 70
     1
102
RTVSPost2010Prop35
280
     0
102
RTVSPost2010PropOp35
 70
     1
102
RTVSPost2010Prop36
280
     0
102
RTVSPost2010PropOp36
 70
     1
102
RTVSPost2010Prop37
 90
       50
102
RTVSPost2010PropOp37
 70
     1
102
RTVSPost2010Prop38
140
0.0
102
RTVSPost2010PropOp38
 70
     1
102
RTVSPost2010Prop39
140
1.0
102
RTVSPost2010PropOp39
 70
     1
102
RTVSPost2010Prop40
 90
        0
102
RTVSPost2010PropOp40
 70
     1
102
RTVSPost2010Prop41ColorIndex
 90
       18
102
RTVSPost2010Prop41ColorRGB
 90
        0
102
RTVSPost2010PropOp41
 70
     1
102
RTVSPost2010Prop42
 90
       50
102
RTVSPost2010PropOp42
 70
     1
102
RTVSPost2010Prop43
 90
        3
102
RTVSPost2010PropOp43
 70
     1
102
RTVSPost2010Prop44ColorIndex
 90
        5
102
RTVSPost2010Prop44ColorRGB
 90
      255
102
RTVSPost2010PropOp44
 70
     1
102
RTVSPost2010Prop45
280
     0
102
RTVSPost2010PropOp45
 70
     1
102
RTVSPost2010Prop46
 90
       50
102
RTVSPost2010PropOp46
 70
     1
102
RTVSPost2010Prop47
 90
       50
102
RTVSPost2010PropOp47
 70
     1
102
RTVSPost2010Prop48
 90
       50
102
RTVSPost2010PropOp48
 70
     1
102
RTVSPost2010Prop49
280
     0
102
RTVSPost2010PropOp49
 70
     1
102
RTVSPost2010Prop50
 90
       50
102
RTVSPost2010PropOp50
 70
     1
102
RTVSPost2010Prop51ColorIndex
 90
      256
102
RTVSPost2010Prop51ColorRGB
 90
-16777216
102
RTVSPost2010PropOp51
 70
     0
102
RTVSPost2010Prop52
140
1.0
102
RTVSPost2010PropOp52
 70
     0
102
RTVSPost2010Prop53
 90
        2
102
RTVSPost2010PropOp53
 70
     1
102
RTVSPost2010Prop54
  1
strokes_ogs.tif
102
RTVSPost2010PropOp54
 70
     1
102
RTVSPost2010Prop55
280
     0
102
RTVSPost2010PropOp55
 70
     1
102
RTVSPost2010Prop56
140
1.0
102
RTVSPost2010PropOp56
 70
     1
102
RTVSPost2010Prop57
140
1.0
102
RTVSPost2010PropOp57
 70
     1
  0
ENDSEC
  0
EOF
